Song name
# A B C D E F G H I J K L M N O P Q R S T U V W X Y Z

Seasick Steve - My Youth tab

Help us improve GuitareTab! Take a short survey!
My Youth by Seasick Steve
from I Started Out With Nothin And I've Still Got Most Of It Left
Open D Tuning
                                                          x2
D----------------------------------------------------------|
A----------------------------------------------------------|
Gb---------------------------------------------------------|
D--3\1p0-2/4-4\2p0----4-4/7--3\1p0-2/4-2/4\2p0----------0--|
A-------------------0---------------------------0-0-3/5----|
D----------------------------------------------------------|

D--------------------------------------------------------------------------|
A--------------------------------------------------------------------------|
Gb-------------------------------------------------------------------------|
D--3\1p0-2/4-2/4\2p0----4-4/7-7/12-----------3\1p0-2/4-2/4\2p0----------0--|
A---------------------0-------------7/9\7-0---------------------0-0-3/5----|
D-----------------------------------7/9\7-0--------------------------------|

0.53
D-----------------------------------------------------------------------|
A-----------------------------------------------------------------------|
Gb-3-3-0-------------------------------------------5--------------------|
D--3-3-0----4-4/7-7-7/12-12---------3\1p0-2/4-2/4----5-4-0-----------0--|
A--3-3-0--0------------------9\7-0--------------------------9\7--3/5----|
D----------------------------9\7-0--------------------------9\7---------|

1.25
D--3\2p0-2/4-2/4--0-3/7-7-7--|
A----------------------------|
Gb---------------------------|
D----------------------------|
A----------------------------|
D----------------------------|

Any corrections please comment
Thanks
Related for My Youth tab