Song name
# A B C D E F G H I J K L M N O P Q R S T U V W X Y Z

Seasick Steve - You Cant Teach An Old Dog New Tricks tab

Okay, anybody who watches Jools Holland will know that the song is actually played on a
banjo, but because the song is so good and in my opinion, the best off the new album, I
have tabbed the song for guitar.  To get a good banjo sound, play the songs with alot of 
vibrato or even with a slide, but I dont play it with a slide.

RIFF A - INTRO

E-------------------------------|
B-------------------------------|
G-------------------------------|
D----9-9-9-9-9-9----------------|
A-------------------------------|
E-----------------10-7----------|

RIFF B

E----------------------------------|
B----------------------------------|
G----------------------------------|
D---------9--12q--9-------9--9v----|
A----12q-------------12q-----------|
E----------------------------------|


RIFF C - VERSE

E-------------------------|
B-------------------------|
G-------------------------|
D----9-9-9-9--------------|
A-------------------------|
E------------10-7-7-7-----|


RIFF D - CHORUS

E-------------------------------------------------------|
B-------------------------------------------------------|
G-------------------------------------------------------|
D----14-14-14-14--12-12-12-12--9-9-9-9-9-9-9-9-9-9-9-9--|
A-------------------------------------------------------|
E-------------------------------------------------------|

RIFF E - BRIDGE

E----------------------------------------------------------|
B----------------------------------------------------------|
G--11v~----------------------------------------------------|
D--------12--9--12--9--12q--9--X--12q--9-12q-9v------------|
A----------------------------------------------------------|
E----------------------------------------------------------|


E----------------------------------------------------------|
B----------------------------------------------------------|
G--11v~----------------------------------------------------|
D--------12--9--12--9--12q--9--X--7v--12v--9v--------------|
A----------------------------------------------------------|
E----------------------------------------------------------|

RIFF F - OUTRO

E---------------------------------------|
B---------------------------------------|
G---------------------------------------|
D----14-14--12-12--9-9-9-9-9-9-9-9-9----|
A---------------------------------------|
E---------------------------------------|



LEGEND

~ - Let the Note Ring Out

X - Muted Note

q - Quarter Note Bend


Song Order

RIFF A x3----
RIFF B x1  INTRO
RIFF A x3
RIFF B x1----

RIFF C x3----
RIFF B x1  VERSE
RIFF C x3
RIFF B x1----

RIFF D x1----CHORUS


RIFF C x3----
RIFF B x1  VERSE
RIFF C x3
RIFF B x1----

RIFF D x1----CHORUS

RIFF E x2----BRIDGE

RIFF D x1----CHORUS

RIFF C x3----
RIFF B x1  VERSE
RIFF C x3
RIFF B x1----

RIFF D x3----CHORUS

RIFF E x2----BRIDGE

RIFF D x4----CHORUS

RIFF F x4----OUTRO

PHEW!  Well thats the whole song as far as i know, apart from a few odd notes thats as
much as I got.

Once again all opinions are welcome at Gelliott127@hotmail.com or my Ultimate Guitar
account at Garizard1.  Thanks for veiwing!
Tap to rate this tab
 
# A B C D E F G H I J K L M N O P Q R S T U V W X Y Z