Song name
# A B C D E F G H I J K L M N O P Q R S T U V W X Y Z

Seasick Steve - Dog House Boogie tab

Dog house boogie - Seasick Steve

Open G tuning

The song for the most part consists of two parts:

1.
D|----------------------------------------------------------------------|
B|----------------------------------------------------------------------|
G|-------0----0---0-------/3-----0--------0------0-----0-----/3----0----|
D|----------------------------------------------------------------------|
G|----0----0---0-----------------------0------0------0------------------|
D|----------------------------------------------------------------------|

2.
D|----------------------------------------------------------------------|
B|---------/5---/5-----------/3---/3----0-------------------------------|
G|---------/5---/5-----------/3---/3----0-----0----0------0-------------|
D|----------------------------------------------------------------------|
G|-----0---/5---/5--------0--/3---/3----0---0-----0-----0---------------|
D|----------------------------------------------------------------------|
Tap to rate this tab
# A B C D E F G H I J K L M N O P Q R S T U V W X Y Z