Song name
# A B C D E F G H I J K L M N O P Q R S T U V W X Y Z

Seasick Steve - Back In The Doghouse tab

Back in the doghouse - Seasick Steve

Open G tuning

The song basicly consists of these two parts

1.
D|-----------------------------------------------------------------|
B|-----/12----------------/5--------------/3------0----------------|
G|-----/12----------------/5--------------/3------0----/3---0------|
D|-----------------------------------------------------------------|
G|-----/12-----------0----/5----------0---/3------0------------0---|
D|-----------------------------------------------------------------|

2.
D|-----------------------------------------------------------------|
B|-----------------------------------------------------------------|
G|------/5-----/3---0------------------0--------------0------------|
D|-----------------------------------------------------------------|
G|----0------0---------------3--0--0--------3--0--0----------------|
D|-----------------------------------------------------------------|
Tap to rate this tab
# A B C D E F G H I J K L M N O P Q R S T U V W X Y Z