Guitaretab - guitar tabs
Song name
# A B C D E F G H I J K L M N O P Q R S T U V W X Y Z

Seasick Steve - Dog House Boogie tab

Seasick Steve doesnt play this song using standard tuning, but this is as close as you 
get to it with your guitar tuned normally.

          Verse 1
e|-------------------------------------------|
B|-------------------------------------------|
G|-------------------------------------------|  x4
D|-------------------------------------------|
A|-------------------------------------------|
E|-3--3-3--3-3--3-3--3-3--3-3--3-3--3-5b-3---|


      "Sing the doghouse song"
e|----------------------------------------------------------------|
B|----------------------------------------------------------------|
G|----------------------------------------------------------------|
D|-10-10-10-10--8-8-8-8-------------------------------------------|
A|-10-10-10-10--8-8-8-8-------------------------------------------|
E|-8--8--8--8---6-6-6-6---3--3-3--3-3--3-3--3-3--3-3--3-3--3-5b-3-|


           Verse 2
e|-------------------------------------------|
B|-------------------------------------------|
G|-------------------------------------------|  x4
D|-------------------------------------------|
A|-------------------------------------------|
E|-3--3-3--3-3--3-3--3-3--3-3--3-3--3-5b-3---|


       "Sing the doghouse song"
e|----------------------------------------------------------------|
B|----------------------------------------------------------------|
G|----------------------------------------------------------------|
D|-10-10-10-10--8-8-8-8-------------------------------------------|
A|-10-10-10-10--8-8-8-8-------------------------------------------|
E|-8--8--8--8---6-6-6-6---3--3-3--3-3--3-3--3-3--3-3--3-3--3-5b-3-|

       "Awhoooo!"
e|-------------------------------------------|
B|-------------------------------------------|
G|-------------------------------------------|  x3
D|----------------------10-10-8-8------------|
A|----------------------10-10-8-8------------|
E|-3--3-3--3-3--3-3--3--8--8--6-6--3-3-5b-3--|

      "Sing the doghouse song"
e|----------------------------------------------------------------|
B|----------------------------------------------------------------|
G|----------------------------------------------------------------|
D|-10-10-10-10--8-8-8-8-------------------------------------------|
A|-10-10-10-10--8-8-8-8-------------------------------------------|
E|-8--8--8--8---6-6-6-6---3--3-3--3-3--3-3--3-3--3-3--3-3--3-3--3-|

           "Doghouse, Doghouse"
e|-------------------------------------------|
B|--/12--------------------------------------|
G|--/12--------------------------------------| x3
D|-------------------------------------------|
A|-------------------------------------------|
E|--------5b-3--5b-3--5b-3--3--3-3-----------|

        "Sing the doghouse song"
e|----------------------------------------------------------------|
B|----------------------------------------------------------------|
G|----------------------------------------------------------------|
D|-10-10-10-10--8-8-8-8-------------------------------------------|
A|-10-10-10-10--8-8-8-8-------------------------------------------|
E|-8--8--8--8---6-6-6-6---3--3-3--3-3--3-3--3-3--3-3--3-3--3-3--3-|


        Long Verse
e|-------------------------------------------|
B|-------------------------------------------|
G|-------------------------------------------|  x16
D|-------------------------------------------|
A|-------------------------------------------|
E|-3--3-3--3-3--3-3--3-3--3-3--3-3--3-5b-3---|
[ Tab from: http://www.guitaretab.com/s/seasick-steve/86155.html ]
         "Sing the doghouse song"
e|----------------------------------------------------------------|
B|----------------------------------------------------------------|
G|----------------------------------------------------------------|
D|-10-10-10-10--8-8-8-8-------------------------------------------|
A|-10-10-10-10--8-8-8-8-------------------------------------------|
E|-8--8--8--8---6-6-6-6---3--3-3--3-3--3-3--3-3--3-3--3-3--3-5b-3-|


         "Awhoooo!"
e|-------------------------------------------|
B|-------------------------------------------|
G|-------------------------------------------|  x3
D|----------------------10-10-8-8------------|
A|----------------------10-10-8-8------------|
E|-3--3-3--3-3--3-3--3--8--8--6-6--3-3-5b-3--|


         "Sing the doghouse song"
e|----------------------------------------------------------------|
B|----------------------------------------------------------------|
G|----------------------------------------------------------------|
D|-10-10-10-10--8-8-8-8-------------------------------------------|
A|-10-10-10-10--8-8-8-8-------------------------------------------|
E|-8--8--8--8---6-6-6-6---3--3-3--3-3--3-3--3-3--3-3--3-3--3-3--3-|


           "Doghouse, Doghouse"
e|-------------------------------------------|
B|--/12--------------------------------------|
G|--/12--------------------------------------| x3
D|-------------------------------------------|
A|-------------------------------------------|
E|--------5b-3--5b-3--5b-3--3--3-3-----------|


         "Sing the doghouse song"
e|------------------------------------------|
B|------------------------------------------|
G|------------------------------------------| x2
D|-10-10-10-10--8-8-8-8---------------------|
A|-10-10-10-10--8-8-8-8---------------------|
E|-8--8--8--8---6-6-6-6---3--3-5b-3--3--3-3-|


         "Sing the doghouse song"
e|----------------------------------------------|
B|--------------------------------/12--12-12-12-|
G|--------------------------------/12--12-12-12-| x2
D|-10-10-10-10--8-8-8-8-------------------------|
A|-10-10-10-10--8-8-8-8-------------------------|
E|-8--8--8--8---6-6-6-6---3--3-3----------------|


         "Sing the doghouse song"
e|----------------------------------------------------------------|
B|----------------------------------------------------------------|
G|----------------------------------------------------------------|
D|-10-10-10-10--8-8-8-8-------------------------------------------|
A|-10-10-10-10--8-8-8-8-------------------------------------------|
E|-8--8--8--8---6-6-6-6---3--3-3--3-3--3-3--3-3--3-3--3-3--3-3--3-|


          Verse, but up the tempo
e|-------------------------------------------|
B|-------------------------------------------|
G|-------------------------------------------|  x4
D|-------------------------------------------|
A|-------------------------------------------|
E|-3--3-3--3-3--3-3--3-3--3-3--3-3--3-5b-3---|

         "Sing the doghouse song"
e|----------------------------------------------|
B|--------------------------------/12--12-12-12-|
G|--------------------------------/12--12-12-12-| x4
D|-10-10-10-10--8-8-8-8-------------------------|
A|-10-10-10-10--8-8-8-8-------------------------|
E|-8--8--8--8---6-6-6-6---3--3-3----------------|

         "Sing the doghouse ..."
e|------------------------------------------------------------|
B|------------------------------------------------------------|
G|--------------------------------/12-12-12-12-12-12-12-12-12-|
D|-10-10-10-10--8-----------------/12-12-12-12-12-12-12-12-12-|
A|-10-10-10-10--8- let ring - ----/12-12-12-12-12-12-12-12-12-|
E|-8--8--8--8---6---------------------------------------------|


It'll sound best if you use a slide like Seasick Steve but i found a lighter works just 
well. cheers ;)
Related for Dog House Boogie tab
Advertisement will be closed in 10 seconds