Song name
# A B C D E F G H I J K L M N O P Q R S T U V W X Y Z

Seasick Steve - Doghouse Boogie tab

Help us improve GuitareTab! Take a short survey!
DogHouse Boogie by Seasick Steve
tabbed by *Spoonman*
calico100@hotmail.com
If you watched the jools holland new years show you will know he plays it useing a 3 
guitar , but i have tabbed it with a normal 6 string in open G tuning which is DGDGBD.
This is best played useing a finger slide.

Theres no typical  verse ,chorus ect...so watch the video of the show to get a better
of when and how many times  to play each riff but ive put some lyrics for a rough guide

main riff repeated
D|---------------------------------|
B|---------------------------------|
G|---------------------------------|
D|------------------------0h3p0----|
G|--00--00-00-00-00-00-00-0h3p0----|
D|---------------------------------|

(...sing the dog house song)
D|--------------|
B|--------------|
G|--------------|
D|--3s5-55s3-33-|
G|--3s5-55s3-33-|
D|--------------|
Back to main riff


 (awooooooo)
D|-----------------------------|
B|-----------------------------|
G|-----------------------------|
D|---------------3s5p0h3p0h3p0-|
G|-00-00-00-00---3s5p0h3p0h3p0-|
D|-----------------------------|

(dog house! dog house!)
D|----------------------------|
B|----------------------------|
G|-----------0------0-----0---|
D|-------3p0---3p0----3-------|
G|--0----3p0---3p0----3-------|
D|----------------------------|
Related for Doghouse Boogie tab