Seasons After - Cry Little Sister tab

-------------------------------------------------------------------------------
			     Cry Little Sister - Seasons After
-------------------------------------------------------------------------------
Tabbed by: Mike Quall
Email:michael.quall@mtmc.edu

All I have time for is the Intro right now. I know the rest so it will be up soon.

Tuning:CGCFAD

D|-----------------------------------------------------------------------------|
A|-----------------------------------------------------------------------------|
F|-----------------------------------------------------------------------------|
C ---4---4-4---5-5---4-4---5-5--------4---4-4---5-5-----4-----5----------------|
G|-----2-----2-----2-----2-----2-2------0-----0-----0-0---0-0---0-0------------|
C|-2--------------------------------0------------------------------------------|

D|-----------------------------------------------------------------------------------|
A|-----------------------------------------------------------------------------------|
F|-----------------------------------------------------------------------------------|
C|---4---4-4---5-5---4-4---5-5--------4---4-4---5-5--4-------------------------------|
G|-----2-----2-----2-----2-----2-2------0-----0------0-~~~~~-------------------------|
C|-2--------------------------------0----------------0-------------------------------|

************************************

| /   slide up
| \   slide down
| h   hammer-on
| p   pull-off
| ~   vibrato
| +   harmonic
| x   Mute note
| b   Bend
| pb  Pre-bend
| br  Bend release
| pbr Pre-bend release
| brb Bend release bend

************************************
Tap to rate this tab
 
# A B C D E F G H I J K L M N O P Q R S T U V W X Y Z