Song name
# A B C D E F G H I J K L M N O P Q R S T U V W X Y Z

Seattle - Nobody Likes Me tab

Help us improve GuitareTab! Take a short survey!
Intro:

e------------------------------------------------------------------------------------------|
b------------------------------------------------------------------------------------------|
g-------5-5-0-----5-555--------------------------------------------------------------------|
d-5-5-0-5-5-0-555-5-555--------------------------------------------------------------------|
a-5-5-0-3-3---555-3-333--------------------------------------------------------------------|
e-3-3---------333--------------------------------------------------------------------------|
play that 4 times then,

Verse:

e------------------------------------------------------------------------------------------|
b------------------------------------------------------------------------------------------|
g-------5-5-5-----5-555--------------------------------------------------------------------|
d-5-5-5-5-5-5-555-5-555--------------------------------------------------------------------|
a-5-5-5-3-3-3-555-3-333--------------------------------------------------------------------|
e-3-3-3-------333--------------------------------------------------------------------------|
play that 5 times then,

Chorus:

e------------------------------------------------------------------------------------------|
b------------------------------------------------------------------------------------------|
g-------3-3-3-----3-333-------3-3-3--------------------------------------------------------|
d-3-3-3-3-3-3-333-3-333-3-3-3-3-3-3-22222222-----------------------------------------------|
a-3-3-3-1-1-1-333-1-111-3-3-3-1-1-1-22222222-----------------------------------------------|
e-1-1-1-------111-------1-1-1-------00000000-----------------------------------------------|
play that 2 times then, verse and chorus again then,

Bridge:
e------------------------------------------------------------------------------------------|
b------------------------------------------------------------------------------------------|
g-----777----------------------------------------------------------------------------------|
d-888-777-6-6-66666------------------------------------------------------------------------|
a-888-555-6-6-66666------------------------------------------------------------------------|
e-666-----4-4-44444------------------------------------------------------------------------|
play that 4 times then,

Outro:

e------------------------------------------------------------------------------------------|
b------------------------------------------------------------------------------------------|
g-------5-5-5-----5-555-------5-5-5--------------------------------------------------------|
d-5-5-5-5-5-5-555-5-555-5-5-5-5-5-5-22222222-----------------------------------------------|
a-5-5-5-3-3-3-555-3-333-5-5-5-3-3-3-22222222-----------------------------------------------|
e-3-3-3-------333-------3-3-3-------00000000-----------------------------------------------|
play 2 times then,

e------------------------------------------------------------------------------------------|
b------------------------------------------------------------------------------------------|
g-------5-5-5-----5-5-5-5------------------------------------------------------------------|
d-5-5-5-5-5-5-555-5-5-5-5------------------------------------------------------------------|
a-5-5-5-3-3-3-555-3-3-3-3------------------------------------------------------------------|
e-3-3-3-------333--------------------------------------------------------------------------|

End:

e------------------------------------------------------------------------------------------|
b------------------------------------------------------------------------------------------|
g------------------------------------------------------------------------------------------|
d-5----------------------------------------------------------------------------------------|
a-5----------------------------------------------------------------------------------------|
e-3----------------------------------------------------------------------------------------|


Lyrics:

Verse:

I?m fucking ugly, nobody likes me
I?m fucking ugly, nobody likes me
I am a hippie and nobody likes me
I am so fucked up and nobody likes me
I?m fucking ugly nobody likes meeeee!

Chorus:
Related for Nobody Likes Me tab