Song name
# A B C D E F G H I J K L M N O P Q R S T U V W X Y Z

Seaweed - Baggage tab

----------------------------------------------------------------------------
			     Baggage - Seaweed
----------------------------------------------------------------------------
Tabbed by: James
Email:

Tuning: Standard

Intro:
e|-------------------------------------------------------------------------|
B|-------------------------------------------------------------------------|
G|-------------------------------------------------------------------------|
D|----9-9-9-9-9-9-9-9--7-7-7-7-7-7-7--------------------5-5-5-5-5-5-5-5-5--|
A|----7-7-7-7-7-7-7-7--5-5-5-5-5-5-5---7-7-7-7-7-7-7-7--3-3-3-3-3-3-3-3-3--|
E|-----------------------------------0-5-5-5-5-5-5-5-5---------------------|
                                                       |PALM MUTING......|
The this cool riff:
e|--------------------------------------------|
B|--------------------------------------------|
G|--------------------------------------------|
D|-----------7--7-7-7-----5--5-------4--2-----|
A|---2--2-2--5--5-5-5-----3--3--333--2--0--5--|
E|---0--0-0------------0-------------------3--|


The after a while u play this little lead thing at the tail of the previous riff
e|-----------------------|
B|-----------------------|
G|--5/7--7/9--9/11-11\---|
D|-----------------------|
A|--3/5--5/7--7/10-10\---|
E|-----------------------|

Chorus:
e|------0---------------------------|  Finish on A5 the last time round
B|------1---------------------------|
G|------0---------------------------|
D|-5-5--2-2-2---2--3-3-3-3-3-3-2----|
A|-3-3--3-3-3---0-----------------3-|
E|----------------------------------|

Then play the cool riff again for verse two followed by the chorus once more and then 
bass only bridge which is where the guitar comes in for support and plays the very intro
e|-------------------------------------------------------------------------|
B|-------------------------------------------------------------------------|
G|-------------------------------------------------------------------------|
D|--9-9-9--------------7-7-7---------------------------5-5-5---------------|
A|--7-7-7--------------5-5-5-----------7-7-7-----------3-3-3---------------|
E|-------------------------------------5-5-5-------------------------------|

Then hit these chords
e|--------------------|
B|--------------------|
G|--------------------|
D|----5-5-x-5-5-x-5\--|
A|----3-3-x-3-3-x-3\--|
E|--------------------|

Befor going into the verse 'cool' riff once more while playin this lead ontop
e|-------------------------------------------------------------------------|
B|-------------------------------------------------------------------------|
G|--11-11-9-7---12-9-11-11-9---11-9-9-9--55555555--11-11-9-----12-12-12-12-|
D|----------------------------------------------------------10-------------|
A|-------------------------------------------------------------------------|
E|-------------------------------------------------------------------------|

e|-------------------------------------------------------------------------|
B|-------------------------------------------------------------------------|
G|-12-12-12-12-12-12-12-14-14-14-14-14-14-14-16-16-16-16-16-16-16-17-17-17-|
D|-------------------------------------------------------------------------|
A|-------------------------------------------------------------------------|
E|-------------------------------------------------------------------------|

Then play the the chorus one last time and finish on A5


| /  slide up
| \  slide down
| h  hammer-on
| p  pull-off
| ~  vibrato
| +  harmonic
| x  Mute note
============================================================================
Tap to rate this tab
# A B C D E F G H I J K L M N O P Q R S T U V W X Y Z