Song name
# A B C D E F G H I J K L M N O P Q R S T U V W X Y Z

Sebastian 23 - Kuss Mich chords

     A        Fm        C#m        D         E

e----0----|----2----|----4----|----5----|----0----|
H----2----|----2----|----5----|----7----|----0----|
G----2----|----2----|----6----|----7----|----1----|
D----2----|----4----|----6----|----7----|----2----|
A----0----|----4----|----4----|----5----|----2----|
E----0----|----2----|----4----|----5----|----0----|


INTRO(Emotionales Gezupfe):

      A          A       C#m   D        A           A      C#m    D

e-----------|-2------2-|----------|-----------|-2------2-|----------|
H-2--2--2---|---2-----2|-5--------|-2--2--2---|---2-----2|-5--------|
G----------2|-----2----|---------4|----------2|-----2----|---------4|
D-----------|----------|----6--7--|-----------|----------|----6--7--|
A-0---------|----------|-4-----5--|-0---------|----------|-4-----5--|
E-----------|---2------|----------|-----------|---2------|----------|


A        Fm         C#m       D      A

                               Fm                                C#m
Die Dunkelheit ist schwarz und heiß, die Sterne sind so weit und weiß,

                     D                                           A
wie guter Kaffee und milch, ich frag mich wast du mehr vom Leben willst.


                             Fm                          C#m
Ich zieh dich langsam zu mir her, denn dein Atem geht so schwer,

                    D                                A
und ich spüre heute Nacht, erlieg ich deiner dunklen Macht.

                          Fm                           C#m
Ich bin dein allergrößter Fan, du hast mehr Umhang als Batman,

                           D                             A
du hast mehr Maske auf als Sido und bist böser als Bu(h)-shido.

                        Fm                                      C#m
Ich will mit dir durchs Leben ziehn, denn du zerstörst gern Galaxien,

                    D                                     Fm
ab und zu Planeten sprengen, die gibt´s doch eh in rauhen Mengen.

                           E                               A
Ich finde gut wie du drauf bist, und ich will dass du mich küsst,

               Fm           C#m       D        A
Da Da Da Da Da Da Da Da Da, küss mich Darth Va...

               Fm           C#m       D        A
Da Da Da Da Da Da Da Da Da, küss mich Darth Vader


A             |A       Fm     |
A             |A       Fm     |
(In diesem Teil werden die A Akkorde nur einmal laut angeschlagen und dann Mute, die Fm 
werden in der zweiten Hälfte des Zweiten und Vierten Taktes normal laut gespielt, am 
anhören:-)


                      Fm
Runter mit der Maske ,mit küsst es sich nicht so klasse,

C#m                                  D
hab keine Angst vorm schwarzen Mann, ich hoffe nur du lässt mich ran.

A                                      Fm
Du liebst es mit der Macht zu spielen, spiel nur nicht mit meinen Gefühlen,

C#m                                   D
du hast dich lang genug gewehrt, komm lass mich an dein Laserschwert.

Fm                            E
Ich finde gut wenn dass so zischt, und ich will dass du mich küsst,

               Fm           C#m       D        A
Da Da Da Da Da Da Da Da Da, küss mich Darth Va...

               Fm           C#m       D
Da Da Da Da Da Da Da Da Da,

e|-0---0---0---0--|-2---2---2---2--|-4---4---4---4--|-2---2---2---2---|
H|---2---2---2---2|---2---2---2---2|---5---5---5---5|---3---3---3---3-|
G|---2---2---2---2|---2---2---2---2|---6---6---6---6|---2---2---2---2-|
D|----------------|----------------|----------------|-0---------------|
A|-0--------------|---------4------|-4--------------|---------0-------|
E|---------2------|-2--------------|---------4------|-----------------|
                          ICH KANN DICH NICHT       aber warum nicht Darth
                                        KÜSSEN

e|-0---0---0---0--|-2---2---2---2--|-4---4---4---4--|-2---2---2------|
H|---2---2---2---2|---2---2---2---2|---5---5---5---5|---3---3---3----|
G|---2---2---2---2|---2---2---2---2|---6---6---6---6|---2---2---2----|
D|----------------|----------------|----------------|-0--------------|
A|-0--------------|---------4------|-4--------------|---------0------|
E|---------2------|-2--------------|---------4------|----------------|
es ist mein größter wunsch                               ICH BIN DEIN VATER


Fm                         E
Und wisst ihr wen dass freut?, Meinen Psychotherapeut...

               Fm           C#m       D        A
Da Da Da Da Da Da Da Da Da, küss mich Darth Va...

               Fm           C#m       D        A
Da Da Da Da Da Da Da Da Da, küss mich Darth Vader
Tap to rate this tab
# A B C D E F G H I J K L M N O P Q R S T U V W X Y Z