Song name
# A B C D E F G H I J K L M N O P Q R S T U V W X Y Z

Sebastian Bach - You Dont Understand tab

Help us improve GuitareTab! Take a short survey!
-------------------------------------------------------------------------------
You Don't Understand - Youth Brigade
Out Of Print
-------------------------------------------------------------------------------
Tabbed by: axeslash
Email: holmzito@yahoo.com

Tuning: Tuned down one step DGCFAD

e|-7--X-7--7-7-7-------------------------------------------------|
B|-8--X-8--8-8-8-----------------------------------7--X-7--7-7-7-|
G|-9--X-9--9-9-9--9--X--9---9--9--9--6--X-6--6-6-6-7--X-7--7-7-7-|
D|-9--X-9--9-9-9-10--X-10--10-10-10--7--X-7--7-7-7-7--X-7--7-7-7-|
A|-7--x-7--7-7-7-10--X-10--10-10-10--7--X-7--7-7-7-5--X-5--5-5-5-|
E|----------------8--X--8---8--8--8--5--X-5--5-5-5---------------| x4

e|-7-7-7-7-----------------------------------------|
B|-8-8-8-8----------------------------7-7--7-7-7-7-|
G|-9-9-9-9--9--9---9--9--9--9-6-6-6-6-7-7--7-7-7-7-|
D|-9-9-9-9-10-10--10-10-10-10-7-7-7-7-7-7--7-7-7-7-|
A|-7-7-7-7-10-10--10-10-10-10-7-7-7-7-5-5--5-5-5-5-|
E|----------8--8---8--8--8--8-5-5-5-5--------------| x4

e|---------------------|    e|----------------------|
B|---------------------|    B|----------------------|
G|-4-4-----------------|    G|-4-4-4-4-7--7-7--7-7--|
D|-4-4-4-4-5-7-7--7-7--|    D|-4-4-4-4-7--7-7--7-7--|
A|-2-2-4-4-5-7-7--7-7--|    A|-2-2-2-2-5--5-5--5-5--|
E|-----2-2-3-5-5--5-5--| x3 E|----------------------|

e|-7-7-7-7-----------------------------------------|
B|-8-8-8-8----------------------------7-7--7-7-7-7-|
G|-9-9-9-9--9--9---9--9--9--9-6-6-6-6-7-7--7-7-7-7-|
D|-9-9-9-9-10-10--10-10-10-10-7-7-7-7-7-7--7-7-7-7-|
A|-7-7-7-7-10-10--10-10-10-10-7-7-7-7-5-5--5-5-5-5-|
E|----------8--8---8--8--8--8-5-5-5-5--------------| x2

e|---------------------|    e|----------------------|
B|---------------------|    B|----------------------|
G|-4-4-----------------|    G|-4-4-4-4-7--7-7--7-7--|
D|-4-4-4-4-5-7-7--7-7--|    D|-4-4-4-4-7--7-7--7-7--|
A|-2-2-4-4-5-7-7--7-7--|    A|-2-2-2-2-5--5-5--5-5--|
E|-----2-2-3-5-5--5-5--| x3 E|----------------------|

e|-------------------------------|
B|-------------------------------|
G|-------------------------------|
D|-------------------------------|
A|-2---2-4-5-4-2----2-2/7-7------|
E|-0---0-2-3-2-0----0-0-0-0------| x2

e|-----------------------------------------------|
B|-----------------------------------------------|
G|-----------------4-7-7------------------4-9-9--|
D|-----------------2-5-5------------------2-7-7--|
A|-2-2-2-2-2-2-2-2--------2-2-2-2-2-2-2-2--------|
E|-0-0-0-0-0-0-0-0--------0-0-0-0-0-0-0-0--------| x2

e|---------------------------|
B|---------------------------|
G|--------5----5--------7----|
D|-2----2-5----5-5----5-7----|
A|-2----2-3----3-5----5-5----|
E|-0----0--------3----3------| x2

e|----------------------------------------------------------------------|
B|----------------------------------------------------------------------|
G|-------5-5--5-5-5-5-------7-7--7-7-7-7-------5-5--5-5-5-5-------7-7---|
D|-2-2-2-5-5--5-5-5-5-5-5-5-7-7--7-7-7-7-2-2-2-5-5--5-5-5-5-5-5-5-7-7---|
A|-2-2-2-3-3--3-3-3-3-5-5-5-5-5--5-5-5-5-2-2-2-3-3--3-3-3-3-5-5-5-5-5---|
E|-0-0-0--------------3-3-3--------------0-0-0--------------3-3-3-------|

e|-7----------------7----------------7----------------|
B|-8----------------8----------------8----------------|
G|-9----------------9----------------9----------------|
D|-9----------------9----------------9----------------|
A|-7----------------7----------------7----------------|
E|----------------------------------------------------|

e|-7-7-7-7-----------------------------------------|
B|-8-8-8-8----------------------------7-7--7-7-7-7-|
G|-9-9-9-9--9--9---9--9--9--9-6-6-6-6-7-7--7-7-7-7-|
D|-9-9-9-9-10-10--10-10-10-10-7-7-7-7-7-7--7-7-7-7-|
A|-7-7-7-7-10-10--10-10-10-10-7-7-7-7-5-5--5-5-5-5-|
E|----------8--8---8--8--8--8-5-5-5-5--------------| x4

e|---------------------|    e|-----------|
B|---------------------|    B|-----------|
G|-4-4-----------------|    G|-4-4-------|
D|-4-4-4-4-5-7-7--7-7--|    D|-4-4-4-4-5-|
A|-2-2-4-4-5-7-7--7-7--|    A|-2-2-4-4-5-|
E|-----2-2-3-5-5--5-5--| x3 E|-----2-2-3-|


| /  slide up
| \  slide down
| h  hammer-on
| p  pull-off
| ~  vibrato
| +  harmonic
| x  Mute note
===============================================================================
Related for You Dont Understand tab