Guitaretab - guitar tabs
Song name
# A B C D E F G H I J K L M N O P Q R S T U V W X Y Z

Sebastian Bach - You Dont Understand tab

Since there seems to be a total lack of tabs for this song on the internet,
hereís what Iíve worked out so far



(DRUMS INTRO)
[ Tab from: http://www.guitaretab.com/s/sebastian-bach/163260.html ]
Guitar 1
E---------------------------------------------------------|
B---9---7-------------------9---7-------------------------|
G-----------9-----6--9--11----------9---------------------|
D---------------------------------------------------------|
A---------------------------------------------------------|
E---------------------------------------------------------|

E---------------------------------------------------------|
B---9---7-----------------------------9999--7-------------|
G-----------9-----6--9--11--8--9--11----------------------|
D---------------------------------------------------------|
A---------------------------------------------------------|
E---------------------------------------------------------|

This melody line is repeated 3 times through the song (0:02, 0:45, 1:46)
Related for You Dont Understand tab