Song name
# A B C D E F G H I J K L M N O P Q R S T U V W X Y Z

Sebastian Bach - Back In The Saddle tab

send me any corrections at rhannan007@yahoo.com
LISTEN TO THE SONG FOR RYTHEM


E--------------------|
A--5-4--7-6---9-8----|
D--7-6--9-8---11-10--|
G--------------------|   PLAY TWICE
B--------------------|
e--------------------|

E--0-0-0--0-0-0--0-0-0--0-0-0-| TRIPELETS
A-----------------------------|
D-----------------------------|
G-----------------------------|
B-----------------------------|
e-----------------------------|

E------------------------|
A--5-4--5-4--5-4-5-4-5-4-|
D--7-6--7-6--7-6-7-6-7-6-|
G------------------------|
B------------------------|
e------------------------|


AS VOCALS ENTER....

E--0-0-3-0-0-0--------|
A--------------0-1----|
D---------------------|  PLAY THIS FOR THE REST OF THE SONG
G---------------------|
B---------------------|
e---------------------|
Tap to rate this tab
# A B C D E F G H I J K L M N O P Q R S T U V W X Y Z