Song name
# A B C D E F G H I J K L M N O P Q R S T U V W X Y Z

Sebastian Bach - Stuck Inside tab

Stuck Inside - Sebastian Bach (Angel Down)

Tuning: Drop D

Intro:
                                                            [--Harmonic--]
E-------------------------------------------------------------------------|
B-------------------------------------------------------------------------|
G-------------------------------------------------------------------------|
D--0-2-3-5-3-2-0-2-3-2-0-3-2-0-2-3--0-2-3-5-3-2-0-2-3-2-0-2---------------|
A--0-2-3-5-3-2-0-2-3-2-0-3-2-0-2-3--0-2-3-5-3-2-0-2-3-2-0-2---------------|
E--0-2-3-5-3-2-0-2-3-2-0-3-2-0-2-3--0-2-3-5-3-2-0-2-3-2-0-2--3-3-4-4-5-5--|

E------------------------------------------------------------|
B------------------------------------------------------------|
G------------------------------------------------------------|
D--0-2-3-5-3-2-0-2-3-2-0-3-2-0-2-3--0-2-3-5-3-2-0-2-3-2-0-2--|
A--0-2-3-5-3-2-0-2-3-2-0-3-2-0-2-3--0-2-3-5-3-2-0-2-3-2-0-2--|
E--0-2-3-5-3-2-0-2-3-2-0-3-2-0-2-3--0-2-3-5-3-2-0-2-3-2-0-2--|

Then you play the same thing again only that this time you plam mute the whole thing

Verse:

Just repeat this section the whole verse
E--0-------------------------|
B--5----------5--------------|
G--4--------------4----------|
D--2------2-----------2------|
A----------------------------|
E----------------------------|

Chorus:

                                                            [--Harmonic--]
E-------------------------------------------------------------------------|
B-------------------------------------------------------------------------|
G-------------------------------------------------------------------------|
D--0-2-3-5-3-2-0-2-3-2-0-3-2-0-2-3--0-2-3-5-3-2-0-2-3-2-0-2---------------|
A--0-2-3-5-3-2-0-2-3-2-0-3-2-0-2-3--0-2-3-5-3-2-0-2-3-2-0-2---------------|
E--0-2-3-5-3-2-0-2-3-2-0-3-2-0-2-3--0-2-3-5-3-2-0-2-3-2-0-2--3-3-4-4-5-5--|

E------------------------------------------------------------|
B------------------------------------------------------------|
G------------------------------------------------------------|
D--0-2-3-5-3-2-0-2-3-2-0-3-2-0-2-3--0-2-3-5-3-2-0-2-3-2-0-2--|
A--0-2-3-5-3-2-0-2-3-2-0-3-2-0-2-3--0-2-3-5-3-2-0-2-3-2-0-2--|
E--0-2-3-5-3-2-0-2-3-2-0-3-2-0-2-3--0-2-3-5-3-2-0-2-3-2-0-2--|

Then you play the same thing again only that this time you plam mute the whole thing

Bridge:

The notes on 7th fret on the G string are Pinch-Harmonics
E---------------------------------------------------|
B---------------------------------------------------|
G--5----------------7--------7---------7--------7---|
D--5------------------------------------------------|
A--3----------0-0-0----0-0-0-----0-0-0----0-0-0-----|
E-------------0-0-0----0-0-0-----0-0-0----0-0-0-----| x4

                                                               No i said it's over!
E----------------------------------------------------------------|
B----------------------------------------------------------------|
G--5-------------------------------------------------------------|
D--5----0-0-0-0-0-0---0-2-3-5-3-0---0-2-3-5-3-0---0-2-3-5-3-0----|
A--3----0-0-0-0-0-0---0-2-3-5-3-0---0-2-3-5-3-0---0-2-3-5-3-0----|
E-------0-0-0-0-0-0---0-2-3-5-3-0---0-2-3-5-3-0---0-2-3-5-3-0----|
Tap to rate this tab
 
# A B C D E F G H I J K L M N O P Q R S T U V W X Y Z