Guitaretab - guitar tabs
Song name
# A B C D E F G H I J K L M N O P Q R S T U V W X Y Z

Sebastian Bach - By Your Side tab

By Your Side - Sebastian Bach (Angel Down)

Standard Tuning


[Intro] (C#m)

use finger picking but if you find it to hard just play the 
notes on the E, B and G string and i will be easyer

E-------4------------------------------|
B-----5---5-7-5---5-----5-----5---5----|
G---6-----------6---6-6---6-6---6------|
D--------------------------------------|
A---4-4-4-4-4-4-4-4-4-4-4-4-4-4-4-4----|
E--------------------------------------|

E-------4------------------------------|
B-----5---5-7-5---5-----5-----5---4----|
G---6-----------6---6-6---6-6---4------|
D--------------------------------------|
A---4-4-4-4-4-4-4-4-4-4-4-4-4-4-2-2----|
E--------------------------------------|


[Verse]

Chords:

 C#sus2   Asus2
E--4--|  E--0--|
B--4--|  B--0--|
G--6--|  G--2--|
D--6--|  D--2--|
A--4--|  A--0--|
E-----|  A-----|

C#sus2                   Asus2
 So long my dear departed where did you go

C#sus2                          Asus2
 I can't believe you're gone and the lights go out so slow

C#sus2                     Asus2
 the precious time we spent my fondest memories

C#sus2                      Asus2
 I'll hold on to the promise That You Made To me 


The picking on the chords 
  C#sus2                           Asus2
E--------------------------------------------------------------------|
B-------4-----4-----4-----4------4------0-----0-----0-----0------0---|
G-----6-----6-----6-----6------6------2-----2-----2-----2------2-----|
D---6-----6-----6-----6------6------2-----2-----2-----2------2-------|
A--------------------------------------------------------------------|
E--------------------------------------------------------------------|
repeat throughout the verse


[Chorus]

chords:

  E         B      C#sus2    A        G#
E--0--|  E-----|  E--4--|  E--0--|  E--4--|
B--0--|  B--4--|  B--4--|  B--2--|  B--4--|
G--1--|  G--4--|  G--6--|  G--2--|  G--4--|
D--2--|  D--4--|  D--6--|  D--2--|  D--6--|
A--2--|  A--2--|  A--4--|  A--0--|  A--6--|
E--0--|  A-----|  E-----|  A-----|  E--4--|
The "A" might be like the "Asus2" in the verse but you just use the one you think sounds best


E                              Bsus2
 You know i'll never let you go You know i'll never hurt so bad
[ Tab from: http://www.guitaretab.com/s/sebastian-bach/287415.html ]
C#sus2                           A
 And if It takes a thousand Years I will be right there By Your Side

E                                G#
 You know I'll never hurt so much When I lost you I was blind

C#sus2                       A       
 And everytime I catch a tear You are right there by my side 


[Solo]

Rythm: E, G#, C#sus2, A

E--------------------------------------------------------------------------------|
B--------------------------------------------------------------------------------|
G--16-16-16/14--14-14-14/13--13-13-13/11--11-11-9-----16-16-16/14--14-14-14/13---|
D--------------------------------------------------------------------------------|
A--------------------------------------------------------------------------------|
E--------------------------------------------------------------------------------|

E-------------------------------------------------------------------------|
B-------------------------------------------------------------------------|
G--13-13-13/11--11-11-9--9-11-11b-11b---11b-11b-11b-11b-11--9-11--9-9~~---|
D-------------------------------------------------------------------------|
A-------------------------------------------------------------------------|
E-------------------------------------------------------------------------|


[Bridge]

I stare into his eyes and then I see your face A dying love inside
E--------------------------------------------------------|
B--------------------------------------------------------|
G---------------------4-----------------------6----------|
D---4-----------------4-----------------------6----------|
A---4-----------------2-----------------------4----------|
E---2----------------------------------------------------|

A love you can't replace You're looking down with pride And let me show what I Can tell 
E-----------------------------------------------------------------------------------|
B-----------------------------------------------------------------------------------|
G---4--------------------------------------------------4------------------------2---|
D---4-------------------4------------------------------4------------------------2---|
A---2-------------------4------------------------------2------------------------0---|
E-----------------------2-----------------------------------------------------------|

/ - slide
b - bend
~ - vibratio
Related for By Your Side tab
By Your Side chords by Sebastian Bach