Song name
# A B C D E F G H I J K L M N O P Q R S T U V W X Y Z

Sebastian Bach - Dream Forever tab

NOTE: I'VE SENT YOU ALREADY YESTERDAY THIS TAB BUT I WROTE AN ERROR IN THE LAST! IT'S 
THE A# MINOR CHORD NOT Ab... PLESE UPLOAD THIS TAB. THANKS!


TUNING: (D# - Drop.) D-Drop. and capo on the first fret!
I tune my guitar a half step higher and than the low e string one whole step down. (It’s 
the same…)

IF YOU USE D-DROP TUNING WITH THE CAPO PLAY EVERYTHING A HALF STEP HIGHER!
OPEN STRING STAYS OPEN STRING…

Band: Sebastian Bach
Song: Dream Forever

TAB by: vanjatadic@gmx.com / www.myspace.com/vanjainstrumental

09.30.2011


Intro:

A# Minor chord

----------------------------------------------------------------------------|
-----1----------------1---------------1--------------1--------------------1-|
-----2----------------2---------------2--------------2--------------------2-|
-----2----------------2---------------2--------------2--------------------2-|
0--0-------------3--3-------------------------------------------------------|
--------------------------------0--0------------3-3-------------------5-5---|

You can also play this version of the chord:

-------|
--5----|
--5----|
--7----|
-------|
-------|


Bridge: chords…

----------------------------------------------------------------------------|
-----1---------------------------6------------------------------------------|
-----2---------------------------5------------------------------------------|
-----2----------------------------------------------------------------------|
----------------------------------------------------------------------------|
----------------------------------------------------------------------------|

Main Riff: powerchords

---5------------------------------------------------------------------------|
---3----------6----------------1----------------4----------------3----------|
--------------6----------------1----------------4----------------3----------|

Intro…

Main Melody:

  [3 times...................]         [4th time..................]
---0-----8-7-----5--7--5--7-8-----------0-----8-7-----3--7--3--7-8----------|
----------------------------------------------------------------------------|
----------------------------------------------------------------------------|
----------------------------------------------------------------------------|
----------------------------------------------------------------------------|
----------------------------------------------------------------------------|
Tap to rate this tab
# A B C D E F G H I J K L M N O P Q R S T U V W X Y Z