Song name
# A B C D E F G H I J K L M N O P Q R S T U V W X Y Z

Sebastian Bach - Love Is A Bitchslap tab

Love is a Bi***slap - Sebastian Bach

Tuning: Standard E


[Main Riff]
Intro/Verse

e|----------------------------------|
B|----------------------------------|
G|----------------3----3-5--6-5-3---|
D|---5-5-3-5--3-5-3--5-3-5--6-5-3---|
A|---5-5-3-5--3-5----5--------------|
E|----------------------------------|


[Chorus]

e|------------------------------------------------------------------|
B|------------------------------------------------------------------|
G|-------8---5---6-6-6-6-5-3------8---5---6-6--6-6--6-6--6--6-5-3---|
D|---5---8---5---6-6-6-6-5-3--5---8---5---6-6--6-6--6-6--6--6-5-3---|
A|---5---6---3---4-4-4-4-3-1--5---6---3---4-4--4-4--4-4--4--4-3-1---|
E|---3------------------------3-------------------------------------|


[Bridge]

e|---------------------|
B|---------------------|
G|---------------------|
D|-----------------3---|
A|---5-5-3-5--3-5--3---|
E|-----------------1---| x4

then:
e|-----------------------------|
B|-----------------------------|
G|---6-6--6-6--6-6--6--6-5-3---|
D|---6-6--6-6--6-6--6--6-5-3---|
A|---4-4--4-4--4-4--4--4-3-1---|
E|-----------------------------|

thats pretty much the whole song
the solos are in G minor and you can play some stuff like this:
(This is not the actual solo(s)!)

e|--18p17p15-18p17p15--|-----15---------15-------|----------------------------|
B|---------------------|--18b--18p15-18b--18p15--|-----18----18----18---------|
G|---------------------|-------------------------|--17b---17b---17b--17b-15---|
D|---------------------|-------------------------|----------------------------|
A|---------------------|-------------------------|----------------------------|
E|---------------------|-------------------------|----------------------------|


b  bend
p  pull-off
Tap to rate this tab
# A B C D E F G H I J K L M N O P Q R S T U V W X Y Z