Song name
# A B C D E F G H I J K L M N O P Q R S T U V W X Y Z

Sebastian Ingrosso Alesso - Calling Lose My Mind tab

          Sebastian Ingrosso and Alesso (feat. Ryan Tedder) 
                   --- "Calling (Lose My Mind)" ---

Sebastian Ingrosso's Beatport page:
http://www.beatport.com/artist/sebastian-ingrosso/6611

Sebastian Ingrosso's Facebook page:
https://www.facebook.com/therealingrosso


Alesso's Beatport page:
http://www.beatport.com/artist/alesso/136838

Alesso's Facebook page:
https://www.facebook.com/AlessoOfficial



Here's the main riff you hear throughout the song:

e|-------------------------------------------------------------|
B|-------------------------9-10-9-----------9-10-12------------|
G|-9-9-9--11---9-9-9--11----------11-9--9-11--------9~--11-----|
D|----------11----------11--------------------------------11---|
A|-------------------------------------------------------------|
E|-------------------------------------------------------------|

And here's the intro/ending sound (repeat as necessary):

e|--------------------------------------|
B|--------------------------------------|
G|-8h9-9-9-9-9---8h9-9-9-9-9---8h9-9-9--|
D|--------------------------------------|
A|--------------------------------------|
E|--------------------------------------|
Tap to rate this tab
# A B C D E F G H I J K L M N O P Q R S T U V W X Y Z