Song name
# A B C D E F G H I J K L M N O P Q R S T U V W X Y Z

Sebastian - Hispaniola tab

    _____________
   / Sebastian   /
  / Hispaniola  /
 / Skatteøen   /
/_____________/

  1 + 2 + 3 + 4 +     Hver tak er noteret således, så det er muligt
 +=---=---=---=---+  at angive akkordernes eksakte timing.

--------------------------------------------------------------------------------


Vers:
3/4
  A            E/G#         Em/G         D/F#
+:=---=---=---+=---=---=---+=---=---=---+=---=---=---+

                           1.
  Bm           F#           Bm           F#
 +=---=---=---+=---=---=---+=---=---=---+=---=---=---:+

 2.           4/4
  Bm      A/C# F#               %
 +=---=---=---+=---=---=---=---+=---=---=---=---+



Omkvæd:
  D                Bm7              A     D          %
+:=---=---=---=---+=---=---=---=---+=---=---=---=---+=---=---=---=---+

  D                Bm7              Bm/A  A          %
 +=---=---=---=---+=---=---=---=---+=---=---=---=---+=---=---=---=---:+



Vers (nu i 4/4)

Omkvæd (break på sidste Bm/A og drop sidste takt)



Steelpans solo:
                                    1.2.3.
  F#m              C#m7             D                %
+:=---=---=---=---+=---=---=---=---+=---=---=---=---+=---=---=---=---:+

 4.
 Bm7              %             B7sus4              %
+=---=---=---=---+=---=---=---=---+=---=---=---=---+=---=---=---=---+



Vers

Omkvæd



Steelpans mellemspil:
 D                 D                  A     D
|-----0---2-------|-----------------|-----------7--12-|---9-----------5-|
|-3-3-------------|-0---2---3-------|-2-----3---------|------10---7-----|
|-----0---2-------|---------2-------|-2-----2---4---9-|---6-----------2-|
|-4-4-------------|-0---2---4-------|-2-----4---------|-------7---4-----|
|-----------------|-----------------|-----------------|-----------------|
|-----------------|-----------------|-----------------|-----------------|

 D                 D                  D     A          C#m/G#     G#m C#m
|---------2-------|-----------------|-----------------|-----------------|
|-3---0-----------|-0-0-2---3-------|-3-----2---------|-5-----5---4---5-|
|---------2-------|---------2-------|-2-----2---------|-6-----6---4---6-|
|-4---0-----------|-0-0-2---4-------|-4-----2---------|-6-----6---6---6-|
|-----------------|-----------------|-----------------|---------------4-|
|-----------------|-----------------|-----------------|-4-----4---4-----|



Guitar solo:
                                    1.2.3.
  C#m              G#m7             A                %       B
+:=---=---=---=---+=---=---=---=---+=---=---=---=---+=---=---=---=---:+

 4.
 F#m7             %
+=---=---=---=---+=---=---=---=---+

                                    1.2.3.
  F#m              C#m7             D                %       E       4x
+:=---=---=---=---+=---=---=---=---+=---=---=---=---+=---=---=---=---:+

 4.
 Bm7              %             B7sus4
+=---=---=---=---+=---=---=---=---+...



----------------------------------------------------------------------------
Jon Sebastian Frederiksen – 14th /October /2012
Just mail me at Maitinin@gmail.com with questions, comments and corrections!
Tap to rate this tab
 
# A B C D E F G H I J K L M N O P Q R S T U V W X Y Z