Song name
# A B C D E F G H I J K L M N O P Q R S T U V W X Y Z

Sebastian - Romeo chords

Highlighted       Show chord diagrams
    _____________________________
   / Sebastian                   /
  / Romeo                       /
 / Fra stjerne til støv (1981) /
/_____________________________/


                           (guitarens toneart | egentlig toneart)
                                       (C dur | D dur)
                                              |
 Intro:        | C | % | % | % |              |         | D | % | % | % |
                                              |
                                              |
 Mellemspil:   | C | A7 | Dm | % |            |         | D | H7 | Em | % |
                                              |
               | G | E7 | Am-fill | % |       |         | A | F#7 | Hm | % |
                                              |
                                              |
 Vers:       ||: C | A7 | Dm | % |            |        ||: D | H7 | Em | % |
                                              |
               | G | E7 | Am-fill | % :||     |         | A | F#7 | Hm | % :||
                                              |
               | Fmaj7 | Dm | E7 | % |        |         | Gmaj7 | Em | F#7 | % |
                                              |
                                              |
 OmkvæD:       | C | G/H | [ch]Gm/Bb[/ch] | A7 |       |         | D | A/C# | Am/C | H7 |
                                              |
               | Dm | G | C | A7 |            |         | Em | A | D | H7 |
                                              |
               | Dm | G | Fmaj7 | Dm |        |         | Em | A | Gmaj7 | Em |
                                              |
               | E7 | % |                     |         | F#7 | % |
                                              |

 Mellemspil

 Vers

 OmkvæD

 Mellemspil

 Vers

 3x OmkvæD



Akkorder:
(capo på 2.bånd)
     C     A7    Dm    G     E7   Am*  Fmaj7  G/H  [ch]Gm/Bb[/ch]
e:---0-----0-----1-----3-----0-----0-----0-----3-----3----:
B:---1-----2-----3-----0-----0-----1-----1-----3-----3----:
G:---0-----0-----2-----0-----1-----2-----2-----0-----0----:
D:---2-----2-----0-----0-----0-----2-----3-----0-----0----:
A:---3-----0-----------2-----2-----0-----3-----2-----1----:
E:---------------------3-----0-----------1----------------:

*Am-fill'et der konsekvent bliver spiller på Am:
|-0-0-0-0---0---0-|---0---0---0---0-|
|-1-1-1-0---1---3-|---1---0---1---1-|
|-2-2-2-2---2---2-|---2---2---2---2-|
|-2-2-2-2---2---2-|---2---2---2---2-|
|-0-0-0-0---0---0-|---0---0---0---0-|
|-----------------|-----------------|


Klaver-riffet:
(capo på 2.bånd)
     C                A7               Dm               %
:---|0---1---3-------|--------0-------|--------5-------|--------5-----:
:-1-|--1---1---1-----|2---3-----------|6---8---------6-|----8---------:
:---|--------------2-|--2---2---2---7-|--7---7---7-----|--7---7---7---:
:---|----------------|----------------|----------------|--------------:
:---|----------------|----------------|----------------|--------------:
:---|----------------|----------------|----------------|--------------:

     G                E7               Am               %
:---|----------------|----------------|--------0-------|--------0-----:
:---|0---1---3-------|--------0-------|1---3---------1-|----3---------:
:-0-|--0---0---0-----|1---2---------2-|--2---2---2-----|--2---2---2---:
:---|--------------2-|--2---2---2-----|----------------|--------------:
:---|----------------|----------------|----------------|--------------:
:---|----------------|----------------|----------------|--------------:



 TEKST
*********
Der er noget ved denne scene, der minder mig om Romeo og Julie.
Den minder også om, hvor lidt du bruger din fantasi.
I stedet for at grine gør du livet til det allermest umulige.
Det ender tragikomisk uden videre i melankoli.
Og nostalgi,
som er en pestilens for dem, der har noget nyt at sige

[OmkvæD:]
Men Romeo
vågner aldrig af drømmen.
Står på balkonen,
Romeo,
når Julie går med en anden hjem.

Hvad hjælper det at vente på en, der længst er fløjet forbi dig?
Jeg er sikker på, hun kendte hver en tone i din melodi.
Hvad hjælper dine sange, hvis de egentlig ikke har mere at give af?
Signor Solo Mio, du er fanget i en maskepi.
W. C. Fields
ville have forlangt en whisky og et klart dementi.

[OmkvæD]

Der er noget ved denne scene, der minder mig om Romeo og Julie.
Hvis ikke det var fordi, det' ligesom om der altså mangler en.
Du styrter rundt alene, mens du rimer på det allermest uduelige.
Der er ingen hjælp at hente, når suffløren holder feriefri.
Så tæl til ti,
og hvis hun ikke venter i kulissen, er det sikkert forbi.

[OmkvæD]


+--------------------------------------------------------------------------+
Jon Sebastian Frederiksen - 14th /October /2012
Just mail me at Maitinin@gmail.com with questions, comments and corrections!
Tap to rate this tab
# A B C D E F G H I J K L M N O P Q R S T U V W X Y Z