Song name
# A B C D E F G H I J K L M N O P Q R S T U V W X Y Z

Sebastien Grainger - Im All Rage tab

-------------------------------------------------------------------------------
			     I'm All Rage - Sebastien Grainger
-------------------------------------------------------------------------------
Tabbed by: majinjohnny
Email: youreawomanimamachine@hotmail.com

Tuning: Standard

Intro/Verse
e|---------------------------------------------------------------------------|
B|---------------------------------------------------------------------------|
G|-77------77------9-99999x9-99999-------------------------------------------|
D|-----77------77------------------------------------------------------------|
A|-55------55----------------------------------------------------------------|
E|-----77------77--8-88888x8-88888-------------------------------------------|

Chorus
e|---------------------------------------------------------------------------|
B|---------------------------------------------------------------------------|
G|---------------------------------------------------------------------------|
D|---------------------------------------------------------------------------|
A|-55555555-77777777---------------------------------------------------------|
E|-33333333-55555555---------------------------------------------------------|

Bridge, breakdown, whatever the hell it is
e|---------------------------------------------------------------------------|
B|---------------------------------------------------------------------------|
G|---------------------------------------------------------------------------|
D|-1010-99-1010-99----99-77-99-77----1010-99-1010-99----1212-1111-1212-1111--|
A|---------------------------------------------------------------------------|
E|-8-8--88-8-8--88----88-88-88-88----8-8--88-8-8--88----1010-1010-1010-1010--|


Intro/Verse X2
Chorus X2
Verse X2.5
Chorus X4
Verse X3.5
Chorus X4
Bridge X2
Verse Until End

we good?
alright

i tabbed it
majinjohnny

http://www.sebastiengrainger.net/

| /  slide up
| \  slide down
| h  hammer-on
| p  pull-off
| ~  vibrato
| +  harmonic
| x  Mute note
===============================================================================
Tap to rate this tab
# A B C D E F G H I J K L M N O P Q R S T U V W X Y Z