Song name
# A B C D E F G H I J K L M N O P Q R S T U V W X Y Z

Sebastien Grainger - American Names tab

Sebastien Grainger & The Mountains

American Names

Tuning: Standard

Listen To Song For Timing, Sorry.

MITCHERU CLOCK.

Intro:

e-------------------------------------------------------------------------|
B-------------------------------------------------------------------------|
G----12121212-11111111-9999-1111111111------------------------------------|
D----12121212-11111111-9999-1111111111------(x4)--------------------------|
A----10101010-9-9-9-9--7777-9-9-9-9-9-------------------------------------|
E-------------------------------------------------------------------------|

Verse:


e-------------------------------------------------------------------------|
B-------------------------------------------------------------------------|
G----7-7-7-7-7-7-7-7-7-7-7-7---------4-4-4-4-4-4-4-4-4-4-4-4--------------|
D----7-7-7-7-7-7-7-7-7-7-7-7-7-7-7-7-4-4-4-4-4-4-4-4-4-4-4-4-7-7-7-7--(x4)|
A----5-5-5-5-5-5-5-5-5-5-5-5-7-7-7-7-2-2-2-2-2-2-2-2-2-2-2-2-7-7-7-7------|
E----------------------------5-5-5-5-------------------------5-5-5-5------|

Chorus:


e--------------------------------------------------------------------------|
B--------------------------------------------------------------------------|
G----2-2-2-2-2-2-2-2-------------------------------------------------------|
D----2-2-2-2-2-2-2-2-7-7-7-7-7-7-7-7------------------(x2)-----------------|
A----4-4-4-4-4-4-4-4-7-7-7-7-7-7-7-7---------------------------------------|
E--------------------5-5-5-5-5-5-5-5---------------------------------------|

Verse(x2)

Chorus(x2)

Intro/Bridge(x4)

Song Repeats Intro/Bridge, Verse, And Chorus For The Rest.
Tap to rate this tab
 
# A B C D E F G H I J K L M N O P Q R S T U V W X Y Z