Song name
# A B C D E F G H I J K L M N O P Q R S T U V W X Y Z

Second Coming - Vintage Eyes tab

Help us improve GuitareTab! Take a short survey!
Second Coming "Vintage Eyes"

Intro+chorus:
|--2-2-2-2-2-2-2-2--7-7-7-7-7-7-7-7--2-2-2-2-2-2-2-2--2-2-2--1-1-1-1--|
|--2-2-2-2-2-2-2-2--7-7-7-7-7-7-7-7--2-2-2-2-2-2-2-2--2-2-2--1-1-1-1--|
|--3-3-3-3-3-3-3-3--7-7-7-7-7-7-7-7--3-3-3-3-3-3-3-3--2-2-2--1-1-1-1--|
|--4-4-4-4-4-4-4-4--9-9-9-9-9-9-9-9--4-4-4-4-4-4-4-4--2-2-2--1-1-1-1--|
|--4-4-4-4-4-4-4-4--9-9-9-9-9-9-9-9--4-4-4-4-4-4-4-4------------------|
|--2-2-2-2-2-2-2-2--7-7-7-7-7-7-7-7--2-2-2-2-2-2-2-2------------------|

Verses:
|--2--------------------------------------------2--2-------2----------|
|--2--2-------2--2--2-------2--2--2-------2--2----2---2---------------|
|--3----3---3----2----2---2----2----2---2----2------2-----------------|
|--4------4------3-------3------2------2------1-----------------------|
|--4--------------4---------------------------------------------------|
|--2-----------------------------2------------------------------------|

the chords are.. 
Intro+chorus: F#, Bm, F#, A.. 
the verses are: F#m, F#m(major), F#7, B9.. 
Related for Vintage Eyes tab