Song name
# A B C D E F G H I J K L M N O P Q R S T U V W X Y Z

Secondhand Serenade - Like A Knife tab

This is the Picking part.
Capo on 3rd



e-----------------------------------------------------|
B---1-----1-0-0-1-3-1---------------------------------|
G--0-0---0-0-0-0-0------------------------------------|
D-----------------------------------------------------|
A-3----3----------------------------------------------|
E-----------------------------------------------------|

e------------3---3------------------------------------|
B---1-0--1-1--1-1-1-1---------------------------------|
G--0---0--0----0---0----------------------------------|
D-----------------------------------------------------|
A-0---------------------------------------------------|
E-----------------------------------------------------|

e-----------------------------------------------------|
B---1-0-1-1----1-0--1-1----1-0-1-1--------------------|
G--0---0-0----0----0-0----0---0-0---------------------|
D-----------------------------------------------------|
A-----------------------------------------------------|
E-1---------1-----------3-----------------------------|
Tap to rate this tab
# A B C D E F G H I J K L M N O P Q R S T U V W X Y Z