Song name
# A B C D E F G H I J K L M N O P Q R S T U V W X Y Z

Secondhand Serenade - Like A Knife Acoustic tab

this is the intro to Like A Knife acoustic, i'm sure this is 100% correct. i picked this 
by earing it the other day. it's pretty easy and fun once you  learn it


Eb|------------------------------------------------------7------7----|
Bb|--------------------------------7---------------------------------|
Gb|----9--------9-----8--8----9------9-----9--8---9----9---9--9--9-9-|
Db|--9---9----9---9-----9--9----9--------9------9----9-------9----9--|
Ab|7--------7--------------------------------------------------------|
Eb|------------------------------------9-----------------------------|

---------------------------------------------------------------------|
---------------------------------------------------------------------|
------9--8---9--9-----9--8---9--9------8--9---8--9------8-9---8---9--|
----9------9---9----9------9---9-----9------9---9-----9-----9---9----|
--0---------------0--------------------------------------------------|
-----------------------------------7----------------7----------------|
then he strums the chords after this
the chords are pretty simple too. all it is is(relative to the fact that it's half step 
E, B, C#m, A. these are played in different orders, but you can probably figure that out yourself.
HAVE FUN PLAYING THIS ONE
Tap to rate this tab
# A B C D E F G H I J K L M N O P Q R S T U V W X Y Z