Song name
# A B C D E F G H I J K L M N O P Q R S T U V W X Y Z

Secondhand Serenade - Fix You tab

i'm positive this is 100% correct. i've played through this many times, and this is what 
does.
                               {repeats over and over}
Eb----0-------0-----0------0-----0----0-----0-----0---------------|
Bb------0-------0--0-0-------0----0----0---0-0------0-------------|
Gb----------------------------------------------------------------|
Db---2------2------------4------2----2-----------4----------------|
Ab----------------4----2------------------4----2------------------|
Eb--0-----4--------------------0----4-----------------------------|

and after the first chorus it's just a bit different, before it goes into the second 
which could be chords strummed instead of this.
                                              {"high up above"}
|----0----0----0----0----0----0-----0-----0-----------------|
|-----0----0--0-0----0----0----0-----0-----0----------------|
|-----------------------------------------------------------|
|--2-----2---------4----2----2----2------4------------------|
|------------4----2----------------4---2--------------------|
|-0-----4--------------0----4-------------------------------|

and there you go. HAVE FUN PLAYING THIS ONE!!
Tap to rate this tab
# A B C D E F G H I J K L M N O P Q R S T U V W X Y Z