Song name
# A B C D E F G H I J K L M N O P Q R S T U V W X Y Z

Secondhand Serenade - Take Me With You tab

ok.. here's my 5th tab... secondhand serenade again... hope you like this... i know.. 
is not 100% correct.. but it sounds good...
please rate...

here;s the intro..

e:--------------0-----------------0------------------0-----------|
B:----------0----------0------0-----------0------0------0--------|
G:---------------------------------------------------------------|
D:--------2---2-------------2---2--------------2---2--------2----|
A:-----2-----------------0------------------4--------------------|
E:--0------------------------------------------------------------|

e:------------0--------0----0-------------------0-------0--------|
B:--------0------0-----------------0------0--------0-------------|
G:---------------------------------------------------------------|
D:-----2----2-------2-------------------2----2--------2-----2----|
A:------------------------0----------4---------------------------|
E:--0------------------------------------------------------------|

i've decided to include the bridge..

e:------0----------0--------------0-------------0------------0----------0----|
B:----0---0-----0-----0--------0-----0-------0-----0------0-----0-----0---0--|
G:---------------------------------------------------------------------------|
D:---------------------------------------------------------------------------|
A:--4--------4--------------0-------------0----------------------------------|
E:------------------------------------------------------0-----------0--------|

e:-------0--------------0---------|
B:-----0----0--------0-----0------|
G:--------------------------------|
D:--------------------------------| 5x
A:--2------------2----------------|
E:--------------------------------|


just figure the timing... enjoy...
Tap to rate this tab
 
# A B C D E F G H I J K L M N O P Q R S T U V W X Y Z