Song name
# A B C D E F G H I J K L M N O P Q R S T U V W X Y Z

Secondhand Serenade - Stranger tab

this is my own version of "Stranger" by Secondhand Serenade.
i made a tab on the intro of this song because i like this song.
i tried to look for a tab on this but unfortunately i haven`t found one. 
so i made the tab on my own.
i hope you guys would like it. 
 
INTRO (piano converted to guitar)
e|------------------------------------------------|
b|-6-6---5-5---6-6---5-5----8-8---6-6---8-8---6-6-|
g|-----5-----5-----5------5-----5-----5-----5-----|
d|------------------------------------------------|
a|------------------------------------------------|
E|------------------------------------------------|

e|------------------------------------------------|
b|-5h6-5-5-6-5-5-----8-6-6-8-6-6-5----------------|
g|---------------7-5---------------7--------------|
d|------------------------------------------------|
a|------------------------------------------------|
E|------------------------------------------------|

e|------------------------------------------------|
b|-6-5-5--6-5-5-----8-6-6--8-6-6--5-6------5------|
g|--------------7-5-------------------7------7----|
d|------------------------------------------------|
a|------------------------------------------------|
E|------------------------------------------------|

e|------------------------------------------------|
b|-5-5-5-5---8-8-8-8---6-6-6-6---3-3-3-3----------|
g|--5-5-5-5---5-5-5-5---5-5-5-5---5-5-5-5---------|
d|------------------------------------------------|
a|------------------------------------------------|
E|------------------------------------------------|

e|------------------------------------------------|
b|-5---5---5---5---8---8---5----------------------|
g|---5---5---5---5---5---5------------------------|
d|------------------------------------------------|
a|------------------------------------------------|
E|------------------------------------------------|


add me up at facebook: ravelasco_1092@yahoo.com



Tap to rate this tab
# A B C D E F G H I J K L M N O P Q R S T U V W X Y Z