Secondhand Serenade - World Turns tab

Secondhand Serenade - World Turns

Standard tuning

Em/G - 322000
Em   - 022000


[Intro] C - C - Am - F

e|-------------------------1-0--|
B|----1---3--1------1---3-------|
G|--0---0---------0---0---------|
D|------------------------------|
A|------------------------------|
E|------------------------------|

e|-----------3--3--1--0--1-0----|
B|----1---3------------------1--|
G|--0---0-----------------------|
D|------------------------------|
A|------------------------------|
E|------------------------------|


[Verse]
C
Turn slowly,
                  Am
Each day's so fast,
                     F
And I don't have the strength.
C
All I see,
             Am
Is broken glass,
                     F
With shiny shards of pain.


[Chorus]
    C                   Em/G
And change is coming my Way,
                     Am
But I still feel the same,
                 F
I still feel the same
    C                   Em/G
And change is coming my Way,
                     Am
But I still feel the same,
                 F        C
I still feel the same


[Interlude] C - C - Am - F

e|-------------------------1-0--|
B|----1---3--1------1---3-------|
G|--0---0---------0---0---------|
D|------------------------------|
A|------------------------------|
E|------------------------------|

e|-----------3--3--1--0--1-0----|
B|----1---3------------------1--|
G|--0---0-----------------------|
D|------------------------------|
A|------------------------------|
E|------------------------------|


[Verse]
C
Hold structure,
               Am
Don't let life pass,
                F
Let yourself be free.
C
Cause your much more,
           Am
Forget the past,
            F
I'm your enemy.


[Chorus]
    C                   G/B
And change is coming my Way,
                     Am
But I still feel the same,
                 F
I still feel the same
    C                   G/B
And change is coming my Way,
                     Am
But I still feel the same,
                 F        Am
I still feel the same


[Bridge]
Am                F
It's quiet, (It's quiet)
                     C
It's calm now, (It's calm now)
                  Em
I'm waiting, (I'm waiting)
                  Am
To fall down. (To fall down)
                    F
You showed me, (You showed me)
                          C
That I need hope, (That I need hope)
                          Em
And I need change, (And I need to change)
               Am       F   C      Em
To know how it feels to be alone..
            Am      F   C      Em
How does it feel to be alone?


[Chorus/Outro]
    C                   Em/G
And change is coming my way,
                     Am
But I still feel the same,
                 F
I still feel the same

    C                   Em/G
And change is coming my way,
                     Am
But I still feel the same,
                 F
I still feel the same

    C                   Em/G
And change is coming my way,
                     Am
But I still feel the same,
                 F
I still feel the same

    C                   Em/G
And change is coming my way, (It's quiet...)
                     Am
But I still feel the same, (It's calm now...)
                 F
I still feel the same (I'm waiting...)

(To fall down...)

    C                   Em/G
And change is coming my way, (You showed me)
                     Am
But I still feel the same, (That I need hope)
                 F
I still feel the same (That I need change)
                 C
I still feel the same...


e|-------------------------1-0-------|
B|----1---3--1------1---3--------1~--|
G|--0---0---------0---0---------0----|
D|-----------------------------------|
A|-----------------------------3-----|
E|-----------------------------------|


End on C
Tap to rate this tab
 
# A B C D E F G H I J K L M N O P Q R S T U V W X Y Z