Song name
# A B C D E F G H I J K L M N O P Q R S T U V W X Y Z

Secondhand Serenade - Something More tab

-------------------------------------------------------------------------------
			     SOMETHING MORE - Secondhand Serenade
-------------------------------------------------------------------------------
Tabbed by: orlaisacoustic
Email: orla.lindsay@hotmail.com

Tuning: standard.



Watch him play live, you'll see that these are the right chords for the tab!

Intro: 
e------1-1-------------------------------------------------------|
b---0-1--1-1--5-5---3-3------------------------------------------|
g--2---0--------5-5---4-4----------------------------------------|
d----------------------------------------------------------------|
a----------------------------------------------------------------|
E----------------------------------------------------------------|
     

Chords:
  A   F   C   G   
|----------------------| 
|----------------------| 
|---------5------------| 
|--7--3---5---5--------|
|--7--3---3---5--------|
|--5--1-------3--------|






A       F        C          G
I lie awake again, my bodies feeling paralysed
A        F
I cant remember when
C        G
I didn't live through this disguise
A             F
The words you said to me
C             G
They couldn't set me free
    A                 F             C      
I'm stuck here in this life i didn't ask for

      A      G
There must be something more,
C          F   
Do we know what were fighting for?
A        G           C         F
Breathe in breathe out breathe in breathe out

    A        G
And all these masks we wore
C             F
We never knew what we had in store
A        G           C         F
Breathe in breathe out Breathe in Breathe out

A            F
The storm is rolling in
C            G            
The thunders loud it hurts my ears
A          F
I'm paying for my sins
C              G
And it's gonna rain for years and years
A        F       C                  G
I fooled everyone and now what will i become?
  A                  F
I have to start this over
  A                 G
I have to start this over

      A       G
There must be something more,
C          F   
Do we know what were fighting for?
A         G           C         F
Breathe in breathe out breathe in breathe out

    A         G
And all these masks we wore
C             F
We never knew what we had in store
A         G           C         F
Breathe in breathe out Breathe in Breathe out

A        F           C              G
I fooled everyone and now what will i become?
  A                  F
I have to start this over
  C                  G
I have to start this over


      A       G
There must be something more,
C          F   
Do we know what were fighting for?
A         G           C         F
Breathe in breathe out breathe in breathe out

    A         G
And all these masks we wore
C             F
We never knew what we had in store
A         G           C         F
Breathe in breathe out Breathe in Breathe out

Outro: A F C G 
 
Tap to rate this tab
 
# A B C D E F G H I J K L M N O P Q R S T U V W X Y Z