Secondhand Serenade - Fix You tab

-------------------------------------------------------------------------------
			     FIX YOU - Secondhand Serenade
-------------------------------------------------------------------------------
Tabbed by: BuLLDoGLV090608
Email: aarondelahuerta@hotmail.com

Tuning: Half Step Down

    1  &  2  &  3  &  4  &   1  &  2  &  3  &  4  &
eb|------------------------|---------------------------|
Bb|-------5-----------5----|-------5-----------5-----*-|
Gb|----------4-----------4-|----4-----4-----------4----|
Db|----2-----------2-------|----------------4----------| 
Ab|------------------------|-4-----------2-----------*-|
Eb|-0-----------4----------|---------------------------|
Tap to rate this tab
 
# A B C D E F G H I J K L M N O P Q R S T U V W X Y Z