Secondhand Serenade - Something More tab

Title : Something More
Artist : Secondhand Serenade
Album : Hear Me Now
Ear Tabber : Almario Maminta
E-mail: almario_maminta@y7mail.com


I hope you like this tab. Enjoy!!


Intro:


If you prefer to play this using the guitar, don't worry. I have converted the 
piano intro in guitar.


e|---------|--------|------|--------|---------|--------|------|--------|
B|---------|----6---|-5----|-3------|---------|----6---|-5----|-3------|
G|-2-4-5-0-|--------|----5-|----4-5-|-2-4-5-0-|--------|----5-|----4---|
D|---------|-3------|------|--------|---------|-3------|------|--------|
A|-0-------|--------|-3----|--------|-0-------|--------|-3----|--------|
E|---------|-1------|------|-3------|---------|-1------|------|-3------|

Verse:

Am        F        C           G
  I lie awake again my body's feeling paralyzed.
Am           F         C          G
  I can't remember when I didn't live through this disguise.



(if you have another guitar, then the other can play the piano intro over this part.)

e|---------|--------|------|--------|---------|--------|------|--------|
B|---------|----6---|-5----|-3------|---------|----6---|-5----|-3------|
G|-2-4-5-0-|--------|----5-|----4-5-|-2-4-5-0-|--------|----5-|----4---|
D|---------|-3------|------|--------|---------|-3------|------|--------|
A|-0-------|--------|-3----|--------|-0-------|--------|-3----|--------|
E|---------|-1------|------|-3------|---------|-1------|------|-3------|


Am               F         C               G
  The words you said to me, they couldn't set me free.
     Am                 F             C    G
I'm stuck here in this life I didn't ask for.


Chorus:

       Am      G         C                F                   Am
There must be something more. Do we know what we're fighting for?
          G           C         F           
breathe in breathe out, breathe in breathe out.
    Am         G        C                   F               Am
And all these masks we wore, we never knew what we had in store,
          G            C          F         Am
breathe in breathe out, breathe in breathe out.


Verse II:

Lead:
e|---------|--------|--------|--------|---------|--------|-------|--------|
B|---------|----6---|-5------|--------|---------|----6---|-5-----|--------|
G|-2-4-5-0-|--------|------5-|-7--4-5-|-2-4-5-0-|--------|-----5-|-7--4-5-|
D|---------|-3------|--------|--------|---------|-3------|-------|--------|
A|---------|--------|--------|--------|---------|--------|-------|--------|
E|---------|--------|--------|--------|---------|--------|-------|--------|

                F         C              G
  The storm is rolling in. The thunders loud it hurts my ears.

e|---------|--------|--------|--------|---------|--------|-------|--------|
B|---------|----6---|-5------|--------|---------|----6---|-5-----|--------|
G|-2-4-5-0-|--------|------5-|-7--4-5-|-2-4-5-0-|--------|-----5-|-7--4-5-|
D|---------|-3------|--------|--------|---------|-3------|-------|--------|
A|---------|--------|--------|--------|---------|--------|-------|--------|
E|---------|--------|--------|--------|---------|--------|-------|--------|

Am             F         C                G
  I'm paying for my sins, and it's gonna rain for years and years.

e|---------|--------|--------|--------|---------|--------|-------|--------|
B|---------|----6---|-5------|--------|---------|----6---|-5-----|--------|
G|-2-4-5-0-|--------|------5-|-7--4-5-|-2-4-5-0-|--------|-----5-|-7--4-5-|
D|---------|-3------|--------|--------|---------|-3------|-------|--------|
A|---------|--------|--------|--------|---------|--------|-------|--------|
E|---------|--------|--------|--------|---------|--------|-------|--------|

Am         F        C                  G
  I fooled everyone, and now what will I become?

e|---------|--------|--------|--------|---------|--------|-------|--------|
B|---------|----6---|-5------|--------|---------|----6---|-5-----|--------|
G|-2-4-5-0-|--------|------5-|-7--4-5-|-2-4-5-0-|--------|-----5-|-7--4-5-|
D|---------|-3------|--------|--------|---------|-3------|-------|--------|
A|---------|--------|--------|--------|---------|--------|-------|--------|
E|---------|--------|--------|--------|---------|--------|-------|--------|

   Am                 F       C                 G
I have to start this over, I have to start this over.



Chorus:

       Am      G         C                F                   Am
There must be something more. Do we know what we're fighting for?
          G           C         F           
breathe in breathe out, breathe in breathe out.
    Am         G        C                   F               Am
And all these masks we wore, we never knew what we had in store,
          G            C          F         Am
breathe in breathe out, breathe in breathe out.

Bridge:
         F        C              G
I fooled everyone. Now what will I become?

e|---------|--------|--------|--------|
B|---------|--------|--------|--------|
G|-5-4-5-0-|-5-4-0--|---5----|-4--4-0-|
D|---------|-3------|-3---3--|-5------|
A|---------|--------|--------|--------|
E|---------|--------|--------|--------|
  Am                 F       C                  G
I have to start this over, I have to start this over.


Chorus:

       Am      G         C                F                   Am
There must be something more. Do we know what we're fighting for?
          G           C         F           
breathe in breathe out, breathe in breathe out.
    Am         G        C                   F               Am
And all these masks we wore, we never knew what we had in store,
          G            C          F         
breathe in breathe out, breathe in breathe out.
       Am      G         C   F
There must be something more, 
Am          G           C           F
  breathe in breathe out, breathe in breathe out.
       Am      G         C   F
There must be something more, 

Outro:

Am - F - C - G
e|---------|--------|------|--------|---------|--------|------|--------|
B|---------|----6---|-5----|-3------|---------|----6---|-5----|-3------|
G|-2-4-5-0-|--------|----5-|----4-5-|-2-4-5-0-|--------|----5-|----4---|
D|---------|-3------|------|--------|---------|-3------|------|--------|
A|-0-------|--------|-3----|--------|-0-------|--------|-3----|--------|
E|---------|-1------|------|-3------|---------|-1------|------|-3------|


If you have suggestions, just send me a message to my e-mail almario_maminta@y7mail.com


Tap to rate this tab
 
# A B C D E F G H I J K L M N O P Q R S T U V W X Y Z