Secondhand Serenade - Our Time tab

This is one of Secondhand serenade's newest songs, and I quite enjoy it. 
So, I hope I don't screw this up lol. Please rate and comment!

Also, The B string is tuned up a semitone to C

Intro 
e|---------------------------------------------------|
C|----------0-------------------0------------0-------|
G|--------0---2---------------5-----------4-----0----|
D|------3------------------7-------------------------|
A|----3------------------7-------------5-------------|
E|--1-------------1p0--5------------3----------------|

verse... "but it's you"
e|----------------------|
C|----------------------|
G|----------------------| softly played over the intro riff
D|---3333--7777--5555---|
A|---3333--7777--5555---|
E|---1111--5555--3333---|

build up to the chorus

e|--------------------|
C|--------------------|
G|--------------------|
D|--3~--333--333-5----|
A|--3~--333--333-5----|
E|--1~--111--111-3----|

Chorus (listening for the strumming)
e|-----------------------------------|
C|-----------------------------------|
G|-----------------------------------|
D|-1010101010--7777---3333--5555-----|
A|-1010101010--7777---3333--5555-----|
E|--8-8-8-8-8--5555---1111--3333-----|

lead part over chorus
e|----------------------|--/5-3-1-3-1-0----------|
C|---7~--4~---2-4-2-0---|---------------------5--|
G|----------------------|---------------4-5-7----|
D|----------------------|------------------------|
A|----------------------|------------------------|
E|----------------------|------------------------|

Cont. when he sings "oh"
Rhythm 
e|--------------------|
C|--------------------|
G|--------------------|
D|--3333--7777--5555--|
A|--3333--7777--5555--|
E|--1111--5555--3333--|

lead
e|---------------------------------------|
C|--------7-------7---------7-----7/9/7--| 
G|----4h5-----4h5---5---4h5---4h5--------|
D|---------------------------------------|
A|---------------------------------------|
E|---------------------------------------|

the next first is pretty much the same as the first. But, you only play the
F-chord lead riff then continue playing the rhythm.

Bridge
Rhythm
e|-----------------------------------|
C|-----------------------------------|
G|-----------------------------------|
D|---7777--3333--10101010--5555------|
A|---7777--3333--10101010--5555------|
E|---5555--1111---8-8-8-8--3333------|

Lead (listen for timing)
e|-----------------------------------|
C|---9----9----9-----7---7---7-------|
G|-----10---10---10----5---5---5-----|
D|-----------------------------------|
A|-----------------------------------|
E|-----------------------------------|

end of bridge when he is singing "oh"
Rhythm
e|----------------------|
C|----------------------|
G|----------------------| Repeat as needed
D|---3333--7777--5555---|
A|---3333--7777--5555---|
E|---1111--5555--3333---|

Lead
e|------------------------------------------|
C|--9----9----9----11----11----12----11-----|
G|----10---10---10----12----12----12----12--|
D|------------------------------------------|
A|------------------------------------------|
E|------------------------------------------|

After the bridge just go back to the chorus 
then end it with the intro riff 

I hope this has helped! again please rate and comment so I can fix up 
any mistakes that I have made. Thanks!
Tap to rate this tab
 
# A B C D E F G H I J K L M N O P Q R S T U V W X Y Z