Song name
# A B C D E F G H I J K L M N O P Q R S T U V W X Y Z

Secondhand Serenade - Like A Knife Acoustic tab

                   Title : LIKE A KNIFE (acoustic version)
                        Album: A Twist In My Story
                        Band: Secondhand Serenade

Tabbed by: //_+ Y0ur_sYmPaThY //_+ [FRENZ]

This is my 7th tab now I know it can help you all…
Don’t forget to RATE this…please…
I’m 100% sure with this…

Tuning: HALF-STEP DOWN

CHORDS: ( for electric guitars )

    C#m  A   E   B
eb|--0---0---0---0--|
Bb|--0---0---0---0--|
Gb|--9---9---9---8--|
Db|--9---9---9---9--|
Ab|--x---0---7---x--|
Eb|--9---x---x---7--|


( for acoustic guitars )

    E   B   C#m  A
eb|--0---0---0---0--|
bb|--0---0---0---0--|
Gb|--4---4---4---4--|
Db|--2---4---2---2--|
Ab|--2---2---4---0--|
Eb|--0---0---0---0--|

Intro: (plucking)

Eb|------------------------------------------------------7------7----|
Bb|--------------------------------7---------------------------------|
Gb|----9--------9-----8--8----9------9-----9--8---9----9---9--9--9-9-|
Db|--9---9----9---9-----9--9----9--------9------9----9-------9----9--|
Ab|7--------7--------------------------------------------------------|
Eb|------------------------------------9-----------------------------|

|----------------------------------------------------0-0-0-0-----|
|----------------------------------------------------0-0-0-0-----|
|------9--8---9--9-----9--8---9--9------8--9---8--9--8-8-8-8-----|
|----9------9---9----9------9---9-----9------9---9---9-9-9-9-----|
|--0---------------0---------------------------------x-x-x-x-----|
|-----------------------------------7----------------7-7-7-7-----|

[then strumming ]

   E  B  C#m  A

[lead for this part]

eb-----------------18-----18-16-15-15-16-15-(3x)---------------------|
Bb-----------15-16---15-16-------------------------------------------|
Gb-------------------------------------------------------------------|
Db-------------------------------------------------------------------|
Ab-------------------------------------------------------------------|
Eb-------------------------------------------------------------------|

eb-----------------18-----18------------18-----18------16------------|
Bb-----------15-16---15-16--15-16-15-16---15-16--15-16---------------|
Gb-------------------------------------------------------------------|
Db-------------------------------------------------------------------|
Ab-------------------------------------------------------------------|
Eb-------------------------------------------------------------------|


Verse: (strumming)

  C#m
I dream a lot, I know you say
     A
I’ve got to get away
    E
The world is not yours for the taking
   B
Is all you ever say
  C#m
I know I’m not the best for you
    A
But promise that you’ll stay
           E
Cause if I watch you go

You’ll see me wasting 
       B
You’ll see me wasting away


Chorus:
         E
‘Cause today 
                      B
You walked out of my life
        C#m
‘Cause today 
                         A
Your words felt like a knife
                    C#m – A – E - B
I’m not living this life


   C#m
Goodbyes are meant for lonely people 
A
Standing in the rain
       E
And no matter where I go 
            B
It’s always pouring all the same
     C#m
These streets are filled with memories
     A
Both perfect and in pain
          E
And all I wanna do is love you
            B
But I’m the only one to blame


 Chorus 

            B
But what do I know if you’re leaving

All you did was stop the bleeding
         C#m
But these scars will stay forever

These scars will stay forever
          B
And these words they have no meaning

If we cannot find the feeling
        A
That we held on to together

Try your hardest to remember


E
Stay with me
   B
Or watch me bleed
 C#m               A
I need you just to breathe


(Chorus) 

End: ( repeat the intro[plucking] quietly )
then strum E once ...


End on E
Tap to rate this tab
 
# A B C D E F G H I J K L M N O P Q R S T U V W X Y Z