Song name
# A B C D E F G H I J K L M N O P Q R S T U V W X Y Z

Secondhand Serenade - Our Time tab

                      Title: Our time(Lead for the CHORUS)
                              Album: WEIGHTLESS
                          Band: Secondhand Serenade


Tabbed bY : //_+Y0uR sYmPaThY //_+ [ FRENZ]

This one is just the continuation of my first tab that i made...
This is the lead for the chorus...I figured it out by myself...
I'm sure it's right so don't forget to RATE it PLEASE...!!!

If you have another guitar ,
you can play it together with the strumming ...


Tuning: STANDARD but make sure you tune B up to C (EADgce)


                            LEAD FOR THE CHORUS
                                  GUITAR 2


e|--------------------------------------------------------------------------|
c|--------------------------------------------------------------------------|
g|---12~--9~--7h9--7\5------------------------------------------------------|
D|--------------------------------------------------------------------------|
A|--------------------------------------------------------------------------|
E|--------------------------------------------------------------------------|

e|--------------------------------------------------------------------------|
c|--------------------------------------------------------------------------|
g|---12~--9~--7h9--7\5------------------------------------------------------|
D|--------------------------------------------------------------------------|
A|--------------------------------------------------------------------------|
E|--------------------------------------------------------------------------|
CHORUS:
        C
This is our time to run away
     Am   
Itís our time we donít have to stay here



e|--------------------------------------------------------------------------|
c|---9~--7~--5h7--5\4------------5------------------------------------------|
g|----------------------4--5--7---------------------------------------------|
D|--------------------------------------------------------------------------|
A|--------------------------------------------------------------------------|
E|--------------------------------------------------------------------------|
       F                                       G
Cause all the things that I never knew that I wanted 

Are here with you




e|--------------------------------------------------------------------------|
c|--------------------------------------------------------------------------|
g|---12~--9~--7h9--7\5------------------------------------------------------|
D|--------------------------------------------------------------------------|
A|--------------------------------------------------------------------------|
E|--------------------------------------------------------------------------|

e|--------------------------------------------------------------------------|
c|--------------------------------------------------------------------------|
g|---12~--9~--7h9--7\5------------------------------------------------------|
D|--------------------------------------------------------------------------|
A|--------------------------------------------------------------------------|
E|--------------------------------------------------------------------------|
         C
This is our time; forget the past
     Am
Itís our time we could make it last



e|--------------------------------------------------------------------------|
c|---9~--7~--5h7--5\4------------5------------------------------------------|
g|----------------------4--5--7---------------------------------------------|
D|--------------------------------------------------------------------------|
A|--------------------------------------------------------------------------|
E|--------------------------------------------------------------------------|
       F                                      G
Cause all the things that I never knew that I wanted
		F    
Are here with you



e|--------------------------------------------------------------------------|
c|--------7-------7-----------7-------7/9-7---------------------------------|
g|---4h5-----4h5-----5---4h5-----4h5----------------------------------------|
D|--------------------------------------------------------------------------|
A|--------------------------------------------------------------------------|
E|--------------------------------------------------------------------------|

e|--------------------------------------------------------------------------|
c|--------7-------7-----------7-----7/9--7----------------------------------|
g|---4h5-----4h5-----5---4h5-----4------------------------------------------|
D|--------------------------------------------------------------------------|
A|--------------------------------------------------------------------------|
E|--------------------------------------------------------------------------|
Am-G    F     Am-G
Ohh ohh ohh
Tap to rate this tab
 
# A B C D E F G H I J K L M N O P Q R S T U V W X Y Z