Song name
# A B C D E F G H I J K L M N O P Q R S T U V W X Y Z

Secondhand Serenade - A Twist In My Story tab

A Twist in My story
By : Secondhand Serenade
Standard Tuning 

Just Follow the beat for the strum pattern. OR see this video
http://www.youtube.com/watch?v=IoPzo9ytCO0
This is my 1st ever tab, hope you like it and Enjoy :)

So here it goes

Intro :

e--|--0-----0-----x--|
B--|--0-----0-----x--|
G--|--4-----3-----1--|
D--|--6-----4-----2--|
A--|--6-----4-----2--|
E--|--5-----2-----0--|

Verse:
Slow down.......

e--|--0-----0-----x--| 
B--|--0-----0-----1--| 
G--|--4-----4-----2--| 
D--|--4-----6-----2--| 
A--|--2-----6-----2--| 
E--|--3-----5-----0--| 

The whispers turn to shouting.......

e--|--0-----0-----0-----x--| 
B--|--0-----0-----0-----x--| 
G--|--4-----3-----4-----1--| 
D--|--6-----4-----4-----2--| 
A--|--6-----4-----2-----2--| 
E--|--5-----2-----3-----0--| 

Chorus:
So you see........
                                     
e--|--0-----x-----0-----0-----x--|   
B--|--0-----1-----0-----0-----x--| 
G--|--4-----2-----4-----3-----1--| F#m* 
D--|--4-----2-----6-----4-----2--| 
A--|--2-----2-----6-----4-----2--| 
E--|--3-----0-----5-----2-----0--| 

Interlude : Repeat Intro

e--|--0-----0-----x--|
B--|--0-----0-----x--|
G--|--4-----3-----1--|
D--|--6-----4-----2--|
A--|--6-----4-----2--|
E--|--5-----2-----0--|


Verse II :
And I'm longing.......

e--|--0-----0-----x--| 
B--|--0-----0-----x--| 
G--|--4-----4-----1--| 
D--|--4-----6-----2--| 
A--|--2-----6-----2--| 
E--|--3-----5-----0--|

It's my heartbeat......


e--|--0-----x--| 
B--|--0-----x--| 
G--|--4-----x--| 
D--|--4-----x--| 
A--|--2-----x--| 
E--|--3-----x--|

Strum in the part where...
it's stronger than ever....


e--|--0-----0-----x--| 
B--|--0-----0-----x--| 
G--|--4-----4-----1--| 
D--|--4-----6-----2--| 
A--|--2-----6-----2--| 
E--|--3-----5-----0--|

The whispers turn to shouting.......

e--|--0-----0-----0-----x--| 
B--|--0-----0-----0-----x--| 
G--|--4-----3-----4-----1--| 
D--|--6-----4-----4-----2--| 
A--|--6-----4-----2-----2--| 
E--|--5-----2-----3-----0--| 

Repeat Chorus:

So you see........
                                     
e--|--0-----x-----0-----0-----x--|   
B--|--0-----1-----0-----0-----x--| 
G--|--4-----2-----4-----3-----1--| F#* 
D--|--4-----2-----6-----4-----2--| 
A--|--2-----2-----6-----4-----2--| 
E--|--3-----0-----5-----2-----0--| 

I'm finally waking up.....

e--|--0-----x-----0-----0--|
B--|--0-----x-----0-----0--|
G--|--4-----1-----4-----3--|
D--|--6-----2-----4-----4--|
A--|--6-----2-----2-----4--|
E--|--5-----0-----3-----2--|

Thats what you get....
e--|--x-----0-----0-----0-----x-----0-----0--|
B--|--x-----0-----0-----0-----x-----0-----0--|
G--|--1-----3-----4-----3-----1-----3-----4--|
D--|--2-----4-----6-----4-----2-----4-----6--|
A--|--2-----4-----6-----4-----2-----4-----6--|
E--|--0-----2-----5-----2-----0-----2-----5--|

Strum:1x    1x    1x    2x    1x    1x    1x


So you see....

e--|--0-----x-----0-----0-----x--|   
B--|--0-----1-----0-----0-----x--| 
G--|--4-----2-----4-----3-----1--| F#
D--|--4-----2-----6-----4-----2--| 
A--|--2-----2-----6-----4-----2--| 
E--|--3-----0-----5-----2-----0--|


Interlude : Repeat Intro

e--|--0-----0-----x--|
B--|--0-----0-----x--|
G--|--4-----3-----1--|
D--|--6-----4-----2--|
A--|--6-----4-----2--|
E--|--5-----2-----0--|

Thanks for Viewing :)

Tap to rate this tab
# A B C D E F G H I J K L M N O P Q R S T U V W X Y Z