Song name
# A B C D E F G H I J K L M N O P Q R S T U V W X Y Z

Secondhand Serenade - Suppose tab

Hey guys here you go i couldnt find it so i tab it out the way i play it
Enjoy n let me knw wat u think lol

STANDARD TUNNING: E A D G B E   \m/ (>.<) \m/

VERSE
  A  Bm         C#m
|-----------------------------------|
|-----------------------------------|
|-2--4----------6-------------------|
|-2--4----------6-------------------|
|-0--2----------4-------------------|
|-----------------------------------|
 Suppose that I missed you
  A  Bm        C#m
|-----------------------------------|
|-----------------------------------|
|-2---4----------6------------------|
|-2---4----------6------------------|
|-0---2----------4------------------|
|-----------------------------------|
  Suppose that I cared
  A                    Bm           E      Bm     C#m
|------------------------------------------------------|
|------------------------------------------------------|
|-2--------------------4--------------------4------6---|
|-2--------------------4------------2-------4------6---|
|-0--------------------2------------2-------2------4---|
|-----------------------------------0------------------|
 And suppose that I've spent all my nights running scared
     A            Bm
|--------------------------------|
|--------------------------------|
|----2------------4--------------|
|----2------------4--------------|
|----0------------2--------------|
|--------------------------------|
 And suppose that I was never there





CHORUS
       C#m        A       E               Bm
|----------------------------------------------|
|----------------------------------------------|
|-------6---------2------------------------4---|
|-------6---------2--------2---------------4---|
|-------4---------0--------2---------------2---|
|--------------------------0-------------------|
And my eyes are screaming for the sight of you
     C#m         A
|-------------------------------|
|-------------------------------|
|-----6----------2--------------|
|-----6----------2--------------|
|-----4----------0--------------|
|-------------------------------|
And tonight I'm dreaming
    A                   Bm
|---------------------------------|
|---------------------------------|
|-----------------------4---------|
|---2-------------------4---------|
|---2-------------------2---------|
|---0-----------------------------|
Of all the things that we've been through
     A                 Bm        C#m          Bm      A
|--------------------------------------------------------|
|--------------------------------------------------------|
|-----2-----------------4---------6------------4------2--|
|-----2-----------------4---------6------------4------2--|
|-----0-----------------2---------4------------2------0--|
|--------------------------------------------------------|
And I can't hold on to you, so I guess I feel lonely too

VERSE 2 ( SAME AS THE FIRST ONE )

Suppose we were happy, suppose it was true
And suppose there were cold nights
But we somehow made it through
And suppose that I'm nothing without you


CHORUS ( ALSO SAME THING AS THE FIRST ONE )

And my eyes are screaming for the sight of you
And tonight I'm dreaming
Of all the things that we've been through
And I can't hold on to you, so I guess I feel lonely too


BRIDGE

|------------------------------------------------|
|------------------------------------------------|
|--------------2-----------------6------4---2----|
|-4------------2-----------------6------4---2----|
|-4------------0-----------------4------2---0----|
|-2----------------------------------------------|
 Slow way down This breakdown's eating me alive


|---------------------------------------------------|
|---------------------------------------------------|
|-------------------2-------------6------4----2-----|
|-4-----------------2-------------6------4----2-----|
|-4-(PAUSE)---------0-------------4------2----0-----|
|-2-------------------------------------------------|
 And I'm tired And this fire is fighting to survive


|---------------------------------------------|
|---------------------------------------------|
|---------------------------------------6-----|
|----------2----------------------------6-----|
|----------2----------------------------4-----|
|----------0----------------------------------|
Tell me a secret (I want it) Tell me a story (I need it )


|------------------------------------------------|
|------------------------------------------------|
|------------4-----------------2------------4----|
|------------4-----------------2------------4----|
|------------2-----------------0------------2----|
|------------------------------------------------|
 I'll listen attentively I'll stay awake all night


|-------------------------------------------------------------|
|-------------------------------------------------------------|
|-------------------------------------4-----------------------|
|------------2------------------------4-----------------------|
|------------2------------------------2-----------------------|
|------------0------------------------------------------------|
Allow me to whisper  There's nothing I did mean
              (So softly)                    (Please help me)


|-------------------------------------------------------|
|-------------------------------------------------------|
|---------------4---------2---------------4-------------|
|---------------4---------2---------------4-------------|
|---------------2---------0---------------2-------------|
|-------------------------------------------------------|
But it's in my body, it's strong enough to fight
                                  (Let's make this right)


|----------------------------------|
|----------------------------------|
|--------2----------------4--------|
|--------2----------------4--------|
|--------0----------------2--------|
|----------------------------------|
 Please help me make this right




Verse:(strum each once and quietly)

|------------------------|---------------------------|
|------------------------|---------------------------|
|--2---4------------6----|--2--4----------6----------|
|--2---4------------6----|--2--4----------6----------|
|--0---2------------4----|--0--2----------4----------|
|------------------------|---------------------------|
 Suppose that I was wrong Suppose you were here

|----------------------------------------------------|
|----------------------------------------------------|
|-----2--------------4--------------6-----4-----2----|
|-----2--------------4--------------6-----4-----2----|
|-----0--------------2--------------4-----2-----0----|
|----------------------------------------------------|
And suppose that I reached out and caught your tears

|----------------------------------|
|----------------------------------|
|-----2------------4---------------|
|-----2------------4---------------|
|-----0------------2---------------|
|----------------------------------|
And suppose this fight just disappeared




CHORUS
       C#m        A       E               Bm
|----------------------------------------------|
|----------------------------------------------|
|-------6---------2------------------------4---|
|-------6---------2--------2---------------4---|
|-------4---------0--------2---------------2---|
|--------------------------0-------------------|
And my eyes are screaming for the sight of you
     C#m         A
|-------------------------------|
|-------------------------------|
|-----6----------2--------------|
|-----6----------2--------------|
|-----4----------0--------------|
|-------------------------------|
And tonight I'm dreaming
    A                   Bm
|---------------------------------|
|---------------------------------|
|-----------------------4---------|
|---2-------------------4---------|
|---2-------------------2---------|
|---0-----------------------------|
Of all the things that we've been through
     A                 Bm        C#m          Bm      A
|--------------------------------------------------------|
|--------------------------------------------------------|
|-----2-----------------4---------6------------4------2--|
|-----2-----------------4---------6------------4------2--|
|-----0-----------------2---------4------------2------0--|
|--------------------------------------------------------|
And I can't hold on to you, so I guess I feel lonely too


|----------------------------------|
|----------------------------------|
|-----------6--------4--------2----|
|-----------6--------4--------2----| THE END
|-----------4--------2--------0----|
|----------------------------------|
  But I'd rather be here with you
Tap to rate this tab
 
# A B C D E F G H I J K L M N O P Q R S T U V W X Y Z