Song name
# A B C D E F G H I J K L M N O P Q R S T U V W X Y Z

Secondhand Serenade - Fix You chords

Highlighted       Show chord diagrams
Tuning: Standard

Chords used in this song:
                   (???)
  G#     A#   Cm  G#m/Am7 G#m
e|-4-----6-----3-----3-----3-|
B|-4-----6-----4-----4-----3-|
G|-5-----7-----5-----3-----3-|
D|-6-----8-----5-----5-----5-|
A|-6-----8-----3-----3-----5-|
E|-4-----6-----x-----3-----3-|




Intro and Verse1:

e|------------------------------------------------|
B|-------4-----------4-----------4-----------4----|
G|----3-----3-----3-----3-----3-----3-----3-----3-|
D|-1----------------------------------------------|
A|-------------------------3-----------1----------|
E|-------------3----------------------------------|

Verse1:

When you try your best but you don't succeed
When you get what you want but not what you need
When you feel so tired but you can't sleep
Stuck in reverse

And the tears come streaming down your face
When you lose something you can't replace
When you love someone but it goes to waste
could it be worse?
Chorus:
G#                 A#        G#
     Lights will guide you home
        A#       G#
and ignite your bones
            A#(Let it ring)
And I will try to fix you

Repeat Intro 2x

Verse2:
G#m/Am7          G#m      G#m/Am7    A#
High up above or down below
G#m/Am7                 G#m        G#m/Am7    A#
when you're too in love to let it go
G#m/Am7                G#m           G#m/Am7    A#
but If you never try you'll never know
                G#m/Am7   G#m    G#m/Am7    A#
Just what your worth

Repeat Chorus:
Solo:
e|-3------------------------------------------------------------------|(2x)
B|-444444444444444s8888888888888888s4444444444444444s3333333333333333-|
G|-5------------------------------------------------------------------|
D|-5------------------------------------------------------------------|
A|-3------------------------------------------------------------------|
E|-x------------------------------------------------------------------|


Bridge:
G#m/Am7      G#
Tears stream down your face
G#m/Am7                  A#
When you lose something you cannot replace
G#m/Am7      G#                 G#m/Am7       A#
Tears stream down your face and I            Ooooh!!  (2x)

G#m/Am7      G#
Tears stream down your face
G#m/Am7               A#
I promise you I will learn from my mistakes
G#m/Am7      G#                 G#m/Am7       A#
Tears stream down your face and I            Ooooh!!


Repeat Chorus: *One strum for every chords.
           Cm -- Let it ring.
*to fix you



Hi its me Jedd Angelo Navarro, this is my first tab and I hope you like it. :)
Tap to rate this tab
 
# A B C D E F G H I J K L M N O P Q R S T U V W X Y Z