Song name
# A B C D E F G H I J K L M N O P Q R S T U V W X Y Z

Secondhand Serenade - Vulnerable tab

Title:            Vulnerable
Artist:           Secondhand Serenade
Chords By:        Jelbert Nixon Basco
Facebook account: basco_conrado@yahoo.com add me





   C/G      F/G      A/C       G       C/F   
e|--3---| |--3---| |--x---| |--3---| |--x---|
B|--3---| |--3---| |--x---| |--3---| |--8---|
G|--0---| |--0---| |--0---| |--0---| |--0---|
D|--x---| |--0---| |--x---| |--0---| |--0---|
A|--3---| |--x---| |--3---| |--x---| |--x---|
E|--x---| |--1---| |--5---| |--3---| |--8---|



Intro:

e|-----3---1-0----------3-------3---1-0----------3----|
B|-------------0-1------1---------------0-1------1----|
G|---0---0------------0-------0---0------------0------|
D|----------------------------------------------------|
A|-3------------------------3----------------1--------|
E|------------------1---------------------------------|




Verse 1:

C/G                                   F/G
Share with me the blankets that you're wrapped in
             C/G                F/G
Because it's cold outside, it's cold out side
C/G                                F/G
Share with me the secrets that you kept in
             A/C               G
Because it's cold inside, it's cold inside




Refrain:

         F/G   
And your slowly shaking fingertips
G
Show that you're scared like me so
A/C    
Let's pretend we're alone
       F/G
And I know you may be scared
       G
And I know we're unprepared
                C
But I don?t care




Chorus:

C/G
Tell me tell me
     G                           F/G
What makes you think that you are invincible?
      A/C             G                  C/G
I can see it in your eyes that you're so sure
                          G                       F/G
Please don?t tell me that I'm the only one that?s vulnerable
C/F
Impossible




Verse 2:

      C/G                     F/G
I was born to tell you I love you
                        C/G
Isn't that a song already?
                  F/G
I get a B in originality
          C/G                     F/G  
And it's true I can't go on without you
                       A/C
Your smile makes me see clearer
                             G
If you could only see in the mirror what I see




(Repeat Refrain and Chorus)




Bridge:

A/C   G   C/G                   F/G
Slow down girl, you're not going anywhere
    G
Just wait around and see
      A/C  G   C/G                    F/G
Maybe I'm much more ,you never no what lies ahead
  G                 A/C          G      C/G
I promise I can be anyone, I can be anything
       F/G                           G
Just because you were hurt doesn?t mean you shouldn?t bleed
      A/C    G      C/G
I can be anyone, anything
  F/G                       G
I promise I can be what you need




(Repeat Chorus)
Tap to rate this tab
# A B C D E F G H I J K L M N O P Q R S T U V W X Y Z