Guitaretab - guitar tabs
Song name
# A B C D E F G H I J K L M N O P Q R S T U V W X Y Z

Secondhand Serenade - Your Call tab

Tuning: eBGDAE


     INTRO/VERSE
 
e|------------------------------------------|
B|------------------------------------------|
G|------0--------0--------0--------0--------|
D|----0---0----4---0----5---5----5---0------|
A|--3--------5--------7--------7------------|
E|------------------------------------------|

e|------------------------------------------|
B|------------------------------------------|
G|------0--------0--------0--------0--------|
D|----0---0----4---0----5---5----5---0------|
A|--3--------5--------7--------7------------|
E|------------------------------------------|

e|------------------------------------------|
B|------------------------------------------|
G|------0--------0--------0--------0--------|
D|----0---0----4---0----5---5----5---0------|
A|--3--------5--------7--------7------------|
E|------------------------------------------|

e|------------------------------------------|
B|------------------------------------------|
G|------0--------0--------0--------0--------|
D|----0---0----4---0----5---5----5---0------|
A|--3--------5--------7--------7------------|
E|------------------------------------------|

e|------------------------------------------|
B|------------------------------------------|
G|------0--------0--------0--------0--------|
D|----0---0----4---0----5---5----5---0------|
A|--3--------5--------7--------7------------|
E|------------------------------------------|

e|------------------------------------------|
B|------------------------------------------|
G|------0--------0--------0--------0--------|
D|----0---0----4---0----5---5----5---0------|
A|--3--------5--------7--------7------------|
E|------------------------------------------|

e|------------------------------------------|
B|------------------------------------------|
G|------0--------0--------0--------0--------|
D|----0---0----4---0----5---5----5---0------|
A|--3--------5--------7--------7------------|
E|------------------------------------------|

e|------------------------------------------|
B|------------------------------------------|
G|------0--------0--------0--------0--------|
D|----0---0----4---0----5---5----5---0------|
A|--3--------5--------7--------7------------|
E|------------------------------------------|

     CHORUS

e|------------------------------------------|
B|------------------------------------------|
G|------0--------0--------0--------0--------|
D|----0---0----0---0----4---4----4---4------|
A|--------------------5--------5------------|
E|--3--------3------------------------------|
 
e|------------------------------------------|
B|------------------------------------------|
G|------0--------0--------0--------0--------|
D|----5---5----5---5----0---0----0---0------|
A|--7--------7--------3--------3------------|
E|------------------------------------------|
 
e|------------------------------------------|
B|------------------------------------------|
G|------0--------0--------0--------0--------|
D|----0---0----0---0----4---4----4---4------|
A|--------------------5--------5------------|
E|--3--------3------------------------------|
 
e|------------------------------------------|
B|------------------------------------------|
G|-----0--------0------0----0----0----0-(0~)|
D|---5---5----5---5---0-0--0-0--0-0--0-0(0~)|
A|-7--------7--------3----3----3----3---(3~)|
E|------------------------------------------|

e|------------------------------------------|
B|------------------------------------------|
G|------0--------0--------0--------0--------|
D|----0---0----0---0----4---4----4---4------|
A|--------------------5--------5------------|
E|--3--------3------------------------------|
 
e|------------------------------------------|
B|------------------------------------------|
G|------0--------0--------0--------0--------|
D|----5---5----5---5----0---0----0---0------|
A|--7--------7--------3--------3------------|
E|------------------------------------------|
 
e|------------------------------------------|
B|------------------------------------------|
G|------0--------0--------0--------0--------|
D|----0---0----0---0----4---4----4---4------|
A|--------------------5--------5------------|
E|--3--------3------------------------------|
 
e|------------------------------------------|
B|------------------------------------------|
G|-----0--------0------0----0----0----0-(0~)|
D|---5---5----5---5---0-0--0-0--0-0--0-0(0~)|
A|-7--------7--------3----3----3----3---(3~)|
E|------------------------------------------|
                                

     Post-CHORUS
 
e|-------------|   |----------------------|
B|-------------|   |----------------------|
G|-------------|   |---0----0----0----0---|
D|-------------|   |--0-0--4-0--5-5--5-0--|X2
A|--3--5-------|X4 |-3----5---------------|
E|--------0--0-|   |-----------0----0-----|

CHORUS
e|------------------------------------------|
B|------------------------------------------|
G|------0--------0--------0--------0--------|
D|----0---0----0---0----4---4----4---4------|
A|--------------------5--------5------------|
E|--3--------3------------------------------|
 
e|------------------------------------------|
B|------------------------------------------|
G|------0--------0--------0--------0--------|
D|----5---5----5---5----0---0----0---0------|
A|--7--------7--------3--------3------------|
E|------------------------------------------|
 
e|------------------------------------------|
B|------------------------------------------|
G|------0--------0--------0--------0--------|
D|----0---0----0---0----4---4----4---4------|
A|--------------------5--------5------------|
E|--3--------3------------------------------|
 
e|------------------------------------------|
B|------------------------------------------|
G|-----0--------0------0----0----0----0-(0~)|
D|---5---5----5---5---0-0--0-0--0-0--0-0(0~)|
A|-7--------7--------3----3----3----3---(3~)|
E|------------------------------------------|
[ Tab from: http://www.guitaretab.com/s/secondhand-serenade/61818.html ]
e|------------------------------------------|
B|------------------------------------------|
G|------0--------0--------0--------0--------|
D|----0---0----0---0----4---4----4---4------|
A|--------------------5--------5------------|
E|--3--------3------------------------------|
 
e|------------------------------------------|
B|------------------------------------------|
G|------0--------0--------0--------0--------|
D|----5---5----5---5----0---0----0---0------|
A|--7--------7--------3--------3------------|
E|------------------------------------------|
 
e|------------------------------------------|
B|------------------------------------------|
G|------0--------0--------0--------0--------|
D|----0---0----0---0----4---4----4---4------|
A|--------------------5--------5------------|
E|--3--------3------------------------------|
 
e|------------------------------------------|
B|------------------------------------------|
G|-----0--------0------0----0----0----0-(0~)|
D|---5---5----5---5---0-0--0-0--0-0--0-0(0~)|
A|-7--------7--------3----3----3----3---(3~)|
E|------------------------------------------|


     BRIDGE
 
e|------------------------------------------|
B|------------------------------------------|
G|------0--------0--------0--------0--------|
D|----5---5----4---4----0---0----4---4------|
A|--7--------5--------3--------5------------|
E|------------------------------------------|

e|------------------------------------------|
B|------------------------------------------|
G|------0--------0--------0--------0--------|
D|----5---5----4---4----0---0----4---4------|
A|--7--------5--------3--------5------------|
E|------------------------------------------|

e|------------------------------------------|
B|------------------------------------------|
G|------0--------0--------0--------0--------|
D|----5---5----4---4----0---0----4---4------|
A|--7--------5--------3--------5------------|
E|------------------------------------------|

e|------------------------------------------|
B|------------------------------------------|
G|------0--------0--------0--------0--------|
D|----5---5----4---4----0---0----4---4------|
A|--7--------5--------3--------5------------|
E|------------------------------------------|

e|------------------------------------------|
B|------------------------------------------|
G|------0--------0--------0--------0--------|
D|----0---0----0---0----4---4----4---4------|
A|--------------------5--------5------------|
E|--3--------3------------------------------|
 
e|------------------------------------------|
B|------------------------------------------|
G|------0--------0--------0--------0--------|
D|----5---5----5---5----0---0----0---0------|
A|--7--------7--------3--------3------------|
E|------------------------------------------|
 
e|------------------------------------------|
B|------------------------------------------|
G|------0--------0--------0--------0--------|
D|----0---0----0---0----4---4----4---4------|
A|--------------------5--------5------------|
E|--3--------3------------------------------|
 
e|------------------------------------------|
B|------------------------------------------|
G|-----0--------0------0----0----0----0-(0~)|
D|---5---5----5---5---0-0--0-0--0-0--0-0(0~)|
A|-7--------7--------3----3----3----3---(3~)|
E|------------------------------------------|

e|------------------------------------------|
B|------------------------------------------|
G|------0--------0--------0--------0--------|
D|----0---0----0---0----4---4----4---4------|
A|--------------------5--------5------------|
E|--3--------3------------------------------|
 
e|------------------------------------------|
B|------------------------------------------|
G|------0--------0--------0--------0--------|
D|----5---5----5---5----0---0----0---0------|
A|--7--------7--------3--------3------------|
E|------------------------------------------|
 
e|------------------------------------------|
B|------------------------------------------|
G|------0--------0--------0--------0--------|
D|----0---0----0---0----4---4----4---4------|
A|--------------------5--------5------------|
E|--3--------3------------------------------|
 
e|------------------------------------------|
B|------------------------------------------|
G|-----0--------0------0----0----0----0-(0~)|
D|---5---5----5---5---0-0--0-0--0-0--0-0(0~)|
A|-7--------7--------3----3----3----3---(3~)|
E|------------------------------------------|

e|------------------------------------------|
B|------------------------------------------|
G|------0--------0--------0--------0--------|
D|----0---0----0---0----4---4----4---4------|
A|--------------------5--------5------------|
E|--3--------3------------------------------|
 
e|------------------------------------------|
B|------------------------------------------|
G|------0--------0--------0--------0--------|
D|----5---5----5---5----0---0----0---0------|
A|--7--------7--------3--------3------------|
E|------------------------------------------|
 
e|------------------------------------------|
B|------------------------------------------|
G|------0--------0--------0--------0--------|
D|----0---0----0---0----4---4----4---4------|
A|--------------------5--------5------------|
E|--3--------3------------------------------|
 
e|------------------------------------------|
B|------------------------------------------|
G|-----0--------0------0----0----0----0-(0~)|
D|---5---5----5---5---0-0--0-0--0-0--0-0(0~)|
A|-7--------7--------3----3----3----3---(3~)|
E|------------------------------------------|

e|------------------------------------------|
B|------------------------------------------|
G|------0--------0--------0--------0--------|
D|----0---0----0---0----4---4----4---4------|
A|--------------------5--------5------------|
E|--3--------3------------------------------|
 
e|------------------------------------------|
B|------------------------------------------|
G|------0--------0--------0--------0--------|
D|----5---5----5---5----0---0----0---0------|
A|--7--------7--------3--------3------------|
E|------------------------------------------|
 
e|------------------------------------------|
B|------------------------------------------|
G|------0--------0--------0--------0--------|
D|----0---0----0---0----4---4----4---4------|
A|--------------------5--------5------------|
E|--3--------3------------------------------|
 
e|------------------------------------------|
B|------------------------------------------|
G|-----0--------0------0----0----0----0-(0~)|
D|---5---5----5---5---0-0--0-0--0-0--0-0(0~)|
A|-7--------7--------3----3----3----3---(3~)|
E|------------------------------------------|


END
Related for Your Call tab
×
Your Call