Song name
# A B C D E F G H I J K L M N O P Q R S T U V W X Y Z

Secondhand Serenade - Last Song Ever tab

Secondhand Serenade consists of one very talented man. 
And this song is probably my favorite from him. 
It is very easy to do, there's two guitars in it, 
but I can't figure the other one out.
And there are two different versions
of the song, so the bridges may sound
different.
If you have any questions my AIM is w00t its Megannn. Enjoy!

Standard Tuning.
(Figure out strumming on your own)


Intro/Verse

(I wish my life was this song...)
e|---------0----------3--------------------------|
B|---------3----------3--------------------------|
G|---------0----------0--------------------------|
D|---------2----------2--------------------------|
A|---------2----------3--------------------------|
E|---------0----------0--------------------------|



Chorus

(And I saw the tears on your face...)
e|-----3-------3-------3------3------2---------|
B|-----3-------3-------3------3------3---------|
G|-----0-------0-------0------0------2---------|   (x2)(Second time through
D|-----0-------0-------2------2------0---------|        use Dadd9 at the end
A|-----2-------X-------2------3------X---------|         of D)
E|-----3-------2-------0------0------X---------|



Bridge

e|----------------3------|---------------3------------|
B|------------------3----|----------------------------|
G|--------------------0--|--------0-------------0-----|
D|---------2-------------|------2---2---------2-------|
A|-------2---2-----------|----2--------------------2--|
E|-----0-----------------|----------------------------|


e|--------------------3------|-----------------3--------------|
B|----------------------3----|--------------------------------|
G|------------------------0--|--------0-------------0---------|
D|-------------2-------------|------2---2---------2-----------|
A|-----2h3---3---3-----------|----3---------------------------|
E|---------------------------|---------------------------2h3--|


e|--------------------|---------------3-------3--|
B|--------------------|-----------------3-----3--|
G|----------------0---|--------------------------|
D|---------0--------0-|--------0-----------0-----|
A|-------2---2--------|------2---2---------------|
E|-----3--------------|----3---------------------|


e|----------------3------|----3-------3-------|
B|------------------3----|------3--------3----|
G|---------0----------0--|--------0----0---0--|
D|-------0---0-----------|--------------------|
A|-----------------------|--------------------|
E|-----2-----------------|--------------------|


Now play the chorus, but palm mute it
(The broken glass, your moistened skin...)
Then when it gets to (Scream at me...),quit palm muting.

e|-----3-------3-------0------3----|
B|-----3-------3-------3------3----|
G|-----0-------0-------0------0----|
D|-----0-------0-------2------2----|
A|-----2-------X-------2------3----|
E|-----3-------2-------0------0----|


End on Em7
Tap to rate this tab
 
# A B C D E F G H I J K L M N O P Q R S T U V W X Y Z