Song name
# A B C D E F G H I J K L M N O P Q R S T U V W X Y Z

Secondhand Serenade - Stay Close Dont Go tab

Highlighted       Show chord diagrams
First tab made by : Chompie~
NOTE : This tab does not need any Capo like the other tabs

Hope you enjoy, for any comments or inaccurate parts please e-mail me at
graymatyr_shemai99@yahoo.com



e|-------------------3---3---4---3---1---1---1---1-----43--43---43-----|
B|---4---4---4---4---------------------------------------4---4----4----|
G|-----3---3---3---3---3---3---3---3---3---3---3---3-------------------|
D|---------------------------------------------------------------------|  INTRO
A|---------------------------------------------------------------------|
E|---------------------------------------------------------------------|

(Use power chords)

D#                                  C
Staring at the glass in front of me
              A#
Is it half empty?
             G#                    D#
Have I ruined all you've given me?
                  C
I know I've been selfish
                   A#
I know I've been foolish
                   G#                 A#
But look through that and you will see
            C
That I'll do better
      A#                 G#
I know, baby I can do better

D#                    A#
   If you leave me tonight
               C
I'll wake up alone
                      G#               D#
Don't tell me I will make it on my own
                  A#
Don't leave me tonight
                C         A#            G#
This heart of stone will sing 'til it dies

If you leave me tonight

D#                                     C
Sometimes I stare at you while you are sleeping
                  A#
I listen to your breathing
               G#               D#
Amazed how I somehow managed to
                       C
Sweep you off of your feet girl
                    A#
Your perfect little feet girl
             G#                A#
I took for granted what you do
             C
But I'll do better
      A#                G#
I know, baby I can do better

D#                   A#
  If you leave me tonight
               C
I'll wake up alone
                      G#               D#
Don't tell me I will make it on my own
                  A#
Don't leave me tonight
               C          A#            G#
This heart of stone will sing 'til it dies

If you leave me tonight

Solo Chords : G#-A#-D#-C x2
              
              G#--------
              
              A#------- 


Solo

e|------6------6--------------|------6------6---------------|
B|--4s6----4s6----9-8-9-8-6---|--4s6----4s6----9-8-9-11-9---|
G|----------------------------|-----------------------------|
D|----------------------------|-----------------------------|
A|----------------------------|-----------------------------|
E|----------------------------|-----------------------------|


e|------6---|
B|--4s6-----|
G|----------| x10
D|----------|
A|----------|
E|----------|


     C         D#
And don't you know
  A#          C
My heart is open
        A#             G#
Oh, it's putting up the fight
        A#            D#
And I've got this feeling
      C             G#      
That everything's alright

Don't you see
           A#
I'm not the only one for you

But you're the only one for me

D#                   A#
  If you leave me tonight
               C  A#  G#
I'll wake up alone

D#                   A#
  If you leave me tonight
               C
I'll wake up alone
                     G#                D#
Don't tell me I will make it on my own
                  A#
Don't leave me tonight
                C         A#            G#
This heart of stone will sing 'til it dies
                        C
If you leave me tonight
       A#         G#
Don't leave me tonight



Datisol~
Tap to rate this tab
 
# A B C D E F G H I J K L M N O P Q R S T U V W X Y Z