Song name
# A B C D E F G H I J K L M N O P Q R S T U V W X Y Z

Secret And Whisper - Spider Besider tab

-------------------------------------------------------------------------------
			     Spider Besider- Secret and Whisper
-------------------------------------------------------------------------------
Tabbed by:JMAO[311]

Email:XduffsX360X@aol.com

Tuning:Drop C

e|--------13----15-------18------17----15-------17-17------------------------|
B|--15-15----15----15-15----15------15----15-15------------------------------|
G|---------------------------------------------------------------------------|
D|---------------------------------------------------------------------------|
A|---------------------------------------------------------------------------|
E|---------------------------------------------------------------------------|

e|--------13----15-------18------17----15-------20-20------------------------|
B|--15-15----15----15-15----15------15----15-15------------------------------|
G|---------------------------------------------------------------------------|
D|---------------------------------------------------------------------------|
A|---------------------------------------------------------------------------|
E|---------------------------------------------------------------------------|

e|--------13----15-------18------17----15-------17-17------------------------|
B|--15-15----15----15-15----15------15----15-15------------------------------|
G|---------------------------------------------------------------------------|
D|---------------------------------------------------------------------------|
A|---------------------------------------------------------------------------|
E|---------------------------------------------------------------------------|

e|--------13----15-------18------17----15-------20---------------------------|
B|--15-15----15----15-15----15------15----15-15------------------------------|
G|---------------------------------------------------------------------------|
D|---------------------------------------------------------------------------|
A|---------------------------------------------------------------------------|
E|---------------------------------------------------------------------------|


e|---------------------------------------------------------------------------|
B|------6---8-----11--10---7-----10-10---------------------------------------|
G|--7-7---7---7-7----7---7---7-7---------------------------------------------|
D|---------------------------------------------------------------------------|
A|---------------------------------------------------------------------------|
E|---------------------------------------------------------------------------|

e|---------------------------------------------------------------------------|
B|------6---8-----11--10---7-----13-13---------------------------------------|
G|--7-7---7---7-7----7---7---7-7---------------------------------------------|
D|---------------------------------------------------------------------------|
A|---------------------------------------------------------------------------|
E|---------------------------------------------------------------------------|

e|---------------------------------------------------------------------------|
B|------6---8-----11--10---7-----10-10---------------------------------------|
G|--7-7---7---7-7----7---7---7-7---------------------------------------------|
D|---------------------------------------------------------------------------|
A|---------------------------------------------------------------------------|
E|---------------------------------------------------------------------------|

e|---------------------------------------------------------------------------|
B|------6---8-----11--10---7-----13------------------------------------------|
G|--7-7---7---7-7----7---7---7-7---------------------------------------------|
D|---------------------------------------------------------------------------|
A|---------------------------------------------------------------------------|
E|---------------------------------------------------------------------------|

the first part of the verse right after the intro is prtty much: C-F-G#-A#


          C                F               G#                A#
e|---------------------------------------------------------------------------|
B|---------------------------------------------------------------------------|
G|---------------------------------------------------------------------------|
D|-0-0-0-0-0-0-0-0-5-5-5-5-5-5-5-5-8-8-8-8-8-8-8-8-10-10-10-10-10-10-10-10---|
A|-0-0-0-0-0-0-0-0-5-5-5-5-5-5-5-5-8-8-8-8-8-8-8-8-10-10-10-10-10-10-10-10---|
E|-0-0-0-0-0-0-0-0-5-5-5-5-5-5-5-5-8-8-8-8-8-8-8-8-10-10-10-10-10-10-10-10---|  

http://www.myspace.com/secretandwhisper

| /  slide up
| \  slide down
| h  hammer-on
| p  pull-off
| ~  vibrato
| +  harmonic
| x  Mute note
===============================================================================
Tap to rate this tab
# A B C D E F G H I J K L M N O P Q R S T U V W X Y Z