Song name
# A B C D E F G H I J K L M N O P Q R S T U V W X Y Z

Secret And Whisper - Vanishings tab

-----------------------------------------------------------------------------------|

- Secret and Whisper
-----------------------------------------------------------------------------------|
Tabbed by: mithrandirjh

Here's the intro in standard tuning (for all of us who are too lazy to tune to drop C, 
which SAW typically plays in)

Rhthym Note: The place where the A#(G-15) is played 4x, the middle 2 should be played 
quickly together (e.g. 15--15-15--15). In musical terms play them as 16th notes and the rest as 
8th notes. Listen to it a few times and you should pick it up pretty quickly.

Tuning:Standard

e|---------------------------------------------------------13----------------|
B|--15-15--------------------------15-15----------------------13-------------|
G|--------12-12-14-14-15-15-15-15--------12-12-14-14-15-15-------------------|
D|---------------------------------------------------------------------------|
A|---------------------------------------------------------------------------|
E|---------------------------------------------------------------------------|

e|------------------------------------/18~-17-17h18p17-----------------------|
B|--15-15----------------------------------------------18~-------------------|
G|--------12-12-14-14-15-15-15-15--------------------------------------------|
D|---------------------------------------------------------------------------|
A|---------------------------------------------------------------------------|
E|---------------------------------------------------------------------------|

e|---------------------------------------------------------13----------------|
B|--15-15--------------------------15-15----------------------13-------------|
G|--------12-12-14-14-15-15-15-15--------12-12-14-14-15-15-------------------|
D|---------------------------------------------------------------------------|
A|---------------------------------------------------------------------------|
E|---------------------------------------------------------------------------|

e|---------------------------------------------------------------------------|
B|--15-15--------------------------------------------------------------------|
G|--------12-12-14-14-15-15-15-15------/15~-14-14h15p14----------------------|
D|------------------------------------------------------15-/17~--------------|
A|---------------------------------------------------------------------------|
E|---------------------------------------------------------------------------|

| /  slide up
| \  slide down
| h  hammer-on
| p  pull-off
| ~  vibrato

I'm working on finishing the song...but SAW is pretty challenging to tab, so any help 
would be much appreciated. Enjoy!
Tap to rate this tab
 
# A B C D E F G H I J K L M N O P Q R S T U V W X Y Z