Song name
# A B C D E F G H I J K L M N O P Q R S T U V W X Y Z

Secret And Whisper - Looming Moon tab

e|--------------------------------|
B|------8---8----6----6----6------|
G|--------------------------------|
D|----7---------------------------|
A|--5----5---5----5----5----------|
E|--------------------------------|

e|------5---5---------------------|
B|--------------5----5----5-------|
G|--------------------------------|
D|----5---------------------------|
A|--3-----3---3----3----3---------|
E|--------------------------------|

e|------3---3---------------------|
B|--------------3----3----3-------|
G|--------------------------------|
D|----3---------------------------|
A|--1-----1---1----1----1---------|
E|--------------------------------|

e|--------------------------------|
B|------6----6---5----------------|
G|--------------------------------|
D|----5---------------------------|
A|--3-----3---3-------------------|
E|--------------------------------|
Tap to rate this tab
# A B C D E F G H I J K L M N O P Q R S T U V W X Y Z