Song name
# A B C D E F G H I J K L M N O P Q R S T U V W X Y Z

Secret And Whisper - Attacker tab

best wishes!

D  :-------------------|------------------|------------------|
A  :-------------------|------------------|------------------|
F  :-------------------|------------------|------------------|
C  :----15---14---10---|12-----7---8---10-|--------10--------|
G  :-------------------|------------------|------------------|
C  :0-0----0----0----0-|---0-0---0---0----|8-8-8-8----8-8-\7-|

D  :-------------------|-------------------|------------------|
A  :-------------------|-------------------|------------------|
F  :-------------------|-------------------|------------------|
C  :---------7-b--r--5-|----15---14---10---|12-----7---8---10-|
G  :-------------------|-------------------|------------------|
C  :\5-5-5-5-----------|0-0----0----0----0-|---0-0---0---0----|

D  :---------------------------|--------------------|-------------------|
A  :---------------------------|--------------------|-------------------|
F  :---------------------------|--------------------|-------------------|
C  :------------10----<12>b-r--|--------<10>-b--*---|----15---14---10---|
G  :---------------------------|--------------------|-------------------|
C  :10-10-10-10----10----------|8-8-8-8-------------|0-0----0----0----0-|

D  :------------------|------------------|-------------------|
A  :------------------|------------------|-------------------|
F  :------------------|------------------|-------------------|
C  :12-----7---8---10-|--------10--------|---------7-b--r--5-|
G  :------------------|------------------|-------------------|
C  :---0-0---0---0----|8-8-8-8----8-8-\7-|\5-5-5-5-----------|

D  :-------------------|------------------|---------------------------|
A  :-------------------|------------------|---------------------------|
F  :-------------------|------------------|---------------------------|
C  :----15---14---10---|12-----7---8---10-|------------10----<12>b-r--|
G  :-------------------|------------------|---------------------------|
C  :0-0----0----0----0-|---0-0---0---0----|10-10-10-10----10----------|

D  :-------------------------|----------------|
A  :-------------------------|----------------|
F  :-------------------------|----------------|
C  :--------<10>--b--r-b-r-b-|*---------------|
G  :-------------------------|----------------|
C  :8-8-8-8------------------|----------------|


KEY:
<> Harmonic
b  Bend
r  Release bend
*  Stop note short
\  Slide down
Tap to rate this tab
# A B C D E F G H I J K L M N O P Q R S T U V W X Y Z