Song name
# A B C D E F G H I J K L M N O P Q R S T U V W X Y Z

Secret And Whisper - Spider Besider tab

----------------------------------------------------------------------------
			     Spider Besider - Secret and Whisper
----------------------------------------------------------------------------

Tabbed by:Klinikly-insane


Email:tuckerhuffman@yahoo.com


Tuning:Drop C


| /  slide up
| \  slide down
| h  hammer-on
| p  pull-off
| ~  vibrato
| +  pinch harmonic
| x  Mute note

 -Intro

  {guitar 1}
D|----------13-----15-------18----17-------15----17-17|
A|---15-15-----15-----15-15----15----15-15----15------|
F|----------------------------------------------------| Play these
c|----------------------------------------------------| three 2X
G|----------------------------------------------------|
C|----------------------------------------------------|


   {guitar 2}
D|----------------------------------------------------|
A|----------------------------------------------------|
F|----------------------------------------------------|
c|--0---{second time through guitar two does a slide}-|
G|--0----{down on the fourth string}------------------|
C|--0-------------------------------------------------|


   {guitar 1}
D|----------13-----15-------18----17-------15----20-20|
A|---15-15-----15-----15-15----15----15-15----15------|
F|----------------------------------------------------|
c|----------------------------------------------------|
G|----------------------------------------------------|
C|----------------------------------------------------|



 -Bridge
   {guitar 1}
D|----------------------------------------------------|
A|----------------------------------------------------|
F|--------10----12--------15----14-------12----14-14--| Play these
c|--12-12----12----12-12-----12----12-12----12--------| four 2X
G|----------------------------------------------------|
C|----------------------------------------------------|


   {guitar 2}
D|------------------------------------------------------|
A|------------------------------------------------------|
F|------------------------------------------------------|
c|--0-0-0-0-0--5-5-5-5-5--8-8-8-8-8--10-10-10-10-10-10--|
G|--0-0-0-0-0--5-5-5-5-5--8-8-8-8-8--10-10-10-10-10-10--|
C|--0-0-0-0-0--5-5-5-5-5--8-8-8-8-8--10-10-10-10-10-10--|


   {guitar 1}
D|----------------------------------------------------|
A|---------------------------------------------13-13--|
F|--------10----12--------15----14-------12-----------|
c|--12-12----12----12-12-----12----12-12----12--------|
G|----------------------------------------------------|
C|----------------------------------------------------|

   {guitar 2}
D|------------------------------------------------------|
A|------------------------------------------------------|
F|------------------------------------------------------|
c|--0-0-0-0-0--5-5-5-5-5--8-8-8-8-8--10-10-10-10-10-10--|
G|--0-0-0-0-0--5-5-5-5-5--8-8-8-8-8--10-10-10-10-10-10--|
C|--0-0-0-0-0--5-5-5-5-5--8-8-8-8-8--10-10-10-10-10-10--|


 -Chorus
    {guitar 1}
D|-------------------------------------------------------------------------|
A|13-15----------13-15----------13-15--------------------------------------|
F|------12-12h14-------12-12h14-------12-12h14-----14----------------------|
c|----------------------------------------------15----15-15-{14h15}4X------|
G|-------------------------------------------------------------------------|
C|-------------------------------------------------------------------------|

    {guitar 2}
D|-------------------------------------------------------------------|
A|-------------------------------------------------------------------|
F|-------------------------------------------------------------------| 
c|--7-7-7-7-7-7--0-0-0-0-0-0-10/12-12-12-12-12-10-10-10-10-10-10-----|
G|--7-7-7-7-7-7--0-0-0-0-0-0-10/12-12-12-12-12-10-10-10-10-10-10-----|
C|--7-7-7-7-7-7--0-0-0-0-0-0-10/12-12-12-12-12-10-10-10-10-10-10-----|

    {guitar 1}
D|-------------------------------------------------------------------------|
A|13-15----------13-15----------13-15--------------------------------------|
F|------12-12h14-------12-12h14-------12-12h14-----14-----------------+15~-|
c|----------------------------------------------15----15-15-{14h15}15X-----|
G|-------------------------------------------------------------------------|
C|-------------------------------------------------------------------------|


    {guitar 2}
D|-------------------------------------------------------------------|
A|-------------------------------------------------------------------|
F|-------------------------------------------------------------------| 
c|--7-7-7-7-7-7--0-0-0-0-0-0-10/12-12-12-12-12-10-10-10-10-10-10-----|
G|--7-7-7-7-7-7--0-0-0-0-0-0-10/12-12-12-12-12-10-10-10-10-10-10-----|
C|--7-7-7-7-7-7--0-0-0-0-0-0-10/12-12-12-12-12-10-10-10-10-10-10-----|



 -Verse 2
   {Both guitars}
D|----------------------------------------------------|
A|---{At end of second time, natural harmonic on 10's}| {guitar 2
F|----------------------------------------------------|  Play this
c|--0-0-0-0-0--5-5-5-5-5--8-8-8-8-8--10-10-10-10-10---|  3X}
G|--0-0-0-0-0--5-5-5-5-5--8-8-8-8-8--10-10-10-10-10---| {guitar 1
C|--0-0-0-0-0--5-5-5-5-5--8-8-8-8-8--10-10-10-10-10---|  play 2x}


   {guitar 1}
D|----------------------------------------------------|
A|----------------------------------------------------|
F|--------10----12--------15----14-------12----14-14--|
c|--12-12----12----12-12-----12----12-12----12--------|
G|----------------------------------------------------|
C|----------------------------------------------------|


   {guitar 1}
D|----------------------------------------------------|
A|---------------------------------------------13-13--|
F|--------10----12--------15----14-------12-----------|
c|--12-12----12----12-12-----12----12-12----12--------|
G|----------------------------------------------------|
C|----------------------------------------------------|


   {both guitars}
D|---------------------------------------------------------------------|
A|-------------------------------play 2X-------------------------------|
F|---------------------------------------------------------------------|
c|-0-0-3-0-5-0-0-8-0-7-0-0-5-0-7-7--0-0-3-0-5-0-0-8-0-7-0-0-5-0-10-10--|
G|-0-0-3-0-5-0-0-8-0-7-0-0-5-0-7-7--0-0-3-0-5-0-0-8-0-7-0-0-5-0-10-10--|
C|-0-0-3-0-5-0-0-8-0-7-0-0-5-0-7-7--0-0-3-0-5-0-0-8-0-7-0-0-5-0-10-10--|


 --Chorus--(without last harmonic)

D|---Repeats 5X and then------------------------------------------------|
A|---some open power chords---------------------------------------------|
F|---------------------------------------------15-15-15-15-----------------|
c|-0-0-0-0-0--0-0-0-0-0--0-0-0-0-0--0-0-0-0-0------------------------------|
G|-0-0-0-0-0--0-0-0-0-0--0-0-0-0-0--0-0-0-0-0--13-15-15-15-----------------|
C|-0-0-0-0-0--0-0-0-0-0--0-0-0-0-0--0-0-0-0-0------------------------------|


  {guitar 1}   (bear with me here; it is very quiet and i'm pretty sure that
                it does some other stuff too, but I don't know what)
D|-------------------------------------------------------------------------|
A|-------------------------------------------------------------------------|
F|-------------------------------------------------------------------------|
c|--15p14-15p14-15p14-15p14-15h17---15p14-15p14-15p14-15p14-15h17----------|
G|-------------------------------------------------------------------------|
C|-------------------------------------------------------------------------|


	Passed here it does some clean chordy stuff that I don't feel like
tabbing and then it goes back to the chorus. After the chorus it goes to
this part with some kind of effects going on.

D|---------------------------------------------------------------------|
A|--------play 2X------------------------------------------------------|
F|---------------------------------------------------------------------|
c|-0-0-3-0-5-0-0-8-0-7-0-0-5-0-7-7--0-0-3-0-5-0-0-8-0-7-0-0-5-0-10-10--|
G|-0-0-3-0-5-0-0-8-0-7-0-0-5-0-7-7--0-0-3-0-5-0-0-8-0-7-0-0-5-0-10-10--|
C|-0-0-3-0-5-0-0-8-0-7-0-0-5-0-7-7--0-0-3-0-5-0-0-8-0-7-0-0-5-0-10-10--|


============================================================================
Tap to rate this tab
# A B C D E F G H I J K L M N O P Q R S T U V W X Y Z