Song name
# A B C D E F G H I J K L M N O P Q R S T U V W X Y Z

Secret And Whisper - Warrior Southern Arrowwood tab

            ~Warrior (Southern Arrowwood) - Secret And Whisper~

Tabbed by: Theonethingleft
Tuning:Drop C

Verse 1

Guitar 1 & 2
D|----------------------------------------------------------------------|
A|----------------------------------------------------------------------|
F|----------------------------------------------------------------------|
C|--5-5-5-5-7-3-0-7-3-5-5-5-5-7-3-0-7-3-1-1-1-1-3-3-3-3-3-3-3-5555/7777-|
G|--5-5-5-5-----------5-5-5-5-----------1-1-1-1-------3-3-3-3-----------|
C|--5-5-5-5-----------5-5-5-5-----------1-1-1-1-------3-3-3-3-----------|

D|----------------------------------------------------------------------|
A|----------------------------------------------------------------------|
F|----------------------------------------------------------------------|
C|--5-5-5-5-7-3-0-7-3-5-5-5-5-7-3-0-7-3-1-1-1-1-3-3-3-3-3-3-3-5555/7777-|
G|--5-5-5-5-----------5-5-5-5-----------1-1-1-1-------3-3-3-3-----------|
C|--5-5-5-5-----------5-5-5-5-----------1-1-1-1-------3-3-3-3-----------|

Guitar 1
D|----------------------------------------------------------------------|
A|----20--15-18-15-18/24\23---20--15------------------------------------|
F|-/17--17-----------------/17--17--15151515/17171717/19191919\14141414-|
C|----------------------------------------------------------------------|
G|----------------------------------------------------------------------|
C|----------------------------------------------------------------------|
Guitar 2
D|----------------------------------------------------------------------|
A|----------------------------------------------------------------------|
F|----------------------------------------------------------------------|
C|-----------------------------NO GUITAR--------------------------------|
G|----------------------------------------------------------------------|
C|----------------------------------------------------------------------|

Guitar 1
D|----------------------------------------------------------------------|
A|----20--15-18-15-18/24\23---20--15------------------------------------|
F|-/17--17-----------------/17--17--15151515/17171717/19191919\14141414-|
C|----------------------------------------------------------------------|
G|----------------------------------------------------------------------|
C|----------------------------------------------------------------------|
Guitar 2
D|----------------------------------------------------------------------|
A|----------------------------------------------------------------------|
F|----------------------------------------------------------------------|
C|-----------------------------NO GUITAR--------------------------------|
G|----------------------------------------------------------------------|
C|----------------------------------------------------------------------|

Pre-Chorus

Guitar 1 & 2
D|----------------------------------|
A|----------------------------------|
F|----------------------------------|
C|--5-5---5-5-5-1-1-5-5---5-5-5-1-1-|
G|--5-5---5-5-5-1-1-5-5---5-5-5-1-1-|
C|--5-5---5-5-5-1-1-5-5---5-5-5-1-1-|

Chorus
D|----------------------------------|
A|----------------------------------|
F|----------------------------------|
C|-----------NO GUITAR--------------|
G|----------------------------------|
C|----------------------------------|

Guitar 1 & 2
D|-------------------------------------------------------------------------|
A|-------------------------------------------------------------------------|
F|-------------------------------------------------------------------------|
C|-----5-5-5-5-7-3-0-7-3-5-5-5-5-7-3-0-7-3-1-1-1-1-3-3-3-3-3-3-3-5555/7777-|
G|-----5-5-5-5-----------5-5-5-5-----------1-1-1-1-------3-3-3-3-----------|
C|-/7\-5-5-5-5-----------5-5-5-5-----------1-1-1-1-------3-3-3-3-----------|

Verse 2

Guitar 1 & 2
D|----------------------------------------------------------------------|
A|----------------------------------------------------------------------|
F|----------------------------------------------------------------------|
C|--5-5-5-5-7-3-0-7-3-5-5-5-5-7-3-0-7-3-1-1-1-1-3-3-3-3-3-3-3-5555/7777-|
G|--5-5-5-5-----------5-5-5-5-----------1-1-1-1-------3-3-3-3-----------|
C|--5-5-5-5-----------5-5-5-5-----------1-1-1-1-------3-3-3-3-----------|

Guitar 1
D|----------------------------------------------------------------------|
A|----20--15-18-15-18/24\23---20--15------------------------------------|
F|-/17--17-----------------/17--17--15151515/17171717/19191919\14141414-|
C|----------------------------------------------------------------------|
G|----------------------------------------------------------------------|
C|----------------------------------------------------------------------|
Guitar 2
D|----------------------------------------------------------------------|
A|----------------------------------------------------------------------|
F|----------------------------------------------------------------------|
C|--5-5-5-5-7-3-0-7-3-5-5-5-5-7-3-0-7-3-1-1-1-1-3-3-3-3-3-3-3-5555/7777-|
G|--5-5-5-5-----------5-5-5-5-----------1-1-1-1-------3-3-3-3-----------|
C|--5-5-5-5-----------5-5-5-5-----------1-1-1-1-------3-3-3-3-----------|

Guitar 1
D|----------------------------------------------------------------------|
A|----20--15-18-15-18/24\23---20--15------------------------------------|
F|-/17--17-----------------/17--17--15151515/17171717/19191919\14141414-|
C|----------------------------------------------------------------------|
G|----------------------------------------------------------------------|
C|----------------------------------------------------------------------|
Guitar 2
D|----------------------------------------------------------------------|
A|----------------------------------------------------------------------|
F|----------------------------------------------------------------------|
C|--5-5-5-5-7-3-0-7-3-5-5-5-5-7-3-0-7-3-1-1-1-1-3-3-3-3-3-3-3-5555/7777-|
G|--5-5-5-5-----------5-5-5-5-----------1-1-1-1-------3-3-3-3-----------|
C|--5-5-5-5-----------5-5-5-5-----------1-1-1-1-------3-3-3-3-----------|

Pre-Chorus

Guitar 1 & 2
D|----------------------------------|
A|----------------------------------|
F|----------------------------------|
C|--5-5---5-5-5-1-1-5-5---5-5-5-1-1-|
G|--5-5---5-5-5-1-1-5-5---5-5-5-1-1-|
C|--5-5---5-5-5-1-1-5-5---5-5-5-1-1-|

Bridge

Guitar 1
D|-------------------------|
A|-------------------------|
F|-------------------------|
C|-------NO GUITAR---------|
G|-------------------------|
C|-------------------------|
Guitar 2 (Clean)
D|-------------------------|
A|-------------------------|
F|-------------------------|
C|--5-----10-----7-----5---|
G|--3-----7------5-----3---|
C|--3-----7------5-----3---|

Chorus
D|----------------------------------|
A|----------------------------------|
F|----------------------------------|
C|-----------NO GUITAR--------------|
G|----------------------------------|
C|----------------------------------|

Solo 

Guitar 1
D|----------------------------------|
A|----------------------------------|
F|----------------------------------|
C|----Sorry-I-don't-know-the-Solo---|
G|----------------------------------|
C|----------------------------------|
Guitar 2
D|----------------------------------|
A|----------------------------------|
F|----------------------------------|
C|--5-5--5-5------------------------|
G|--5-5--5-5------------------------|
C|--5-5--5-5------------------------|

Guitar 1
D|--------------------------------------|
A|--------------------------------------|
F|--------------------------------------|
C|------Sorry-I-don't-know-the-Solo-----|
G|--------------------------------------|
C|--------------------------------------|
Guitar 2
D|--------------------------------------|
A|--------------------------------------|
F|--------------------------------------|
C|--5-5-5-5\1-1-3-8-3-5-5-5-5\1-1-3-8-3-|
G|--5-5-5-5\1-1-3-8-3-5-5-5-5\1-1-3-8-3-|
C|--5-5-5-5\1-1-3-8-3-5-5-5-5\1-1-3-8-3-|

Guitar 1
D|----------------------------------|
A|----------------------------------|
F|----------------------------------|
C|---Sorry-I-don't-know-the-Solo----|
G|----------------------------------|
C|----------------------------------|
Guitar 2
D|----------------------------------|
A|----------------------------------|
F|----------------------------------|
C|--1-1-1-1-1-3-8-7-3-3-3-3-1-3-8-3-|
G|--1-1-1-1-1-3-8-7-3-3-3-3-1-3-8-3-|
C|--1-1-1-1-1-3-8-7-3-3-3-3-1-3-8-3-|

Guitar 1
D|------------------------------------------------------|
A|------------------------------------------------------|
F|------------------------------------------------------|
C|------------Sorry-I-don't-know-the-Solo---------------|
G|------------------------------------------------------|
C|------------------------------------------------------|
Guitar 2
D|------------------------------------------------------|
A|------------------------------------------------------|
F|------------------------------------------------------|
C|--5-5-55-5-5-55-5-5-1-3-8-3-5-5-55-5-5-55-5-5-1-3-8-3-|
G|--5-5-55-5-5-55-5-5-1-3-8-3-5-5-55-5-5-55-5-5-1-3-8-3-|
C|--5-5-55-5-5-55-5-5-1-3-8-3-5-5-55-5-5-55-5-5-1-3-8-3-|
pm      xx     xx                 xx     xx

Guitar 1
D|--------------------------------------------------------|
A|--------------------------------------------------------|
F|--------------------------------------------------------|
C|-------------Sorry-I-don't-know-the-Solo----------------|
G|--------------------------------------------------------|
C|--------------------------------------------------------|
Guitar 2
D|--------------------------------------------------------|
A|--------------------------------------------------------|
F|--------------------------------------------------------|
C|--1-1-11-1-1-11-1-1-1-3-8-7-3-3-33-3-3-33-3-3-1-3-1-----|
G|--1-1-11-1-1-11-1-1-1-3-8-7-3-3-33-3-3-33-3-3-1-3-1-----|
C|--1-1-11-1-1-11-1-1-1-3-8-7-3-3-33-3-3-33-3-3-1-3-1-/7--|
pm      xx     xx                 xx     xx

Pre-Chorus
Guitar 1 & 2
D|----------------------------|
A|----------------------------|
F|----------------------------|
C|-------5-5-5-8--------------|
G|-------5-5-5-8--------------|
C|-------5-5-5-8--------------|

Chorus
D|----------------------------------|
A|----------------------------------|
F|----------------------------------|
C|-----------NO GUITAR--------------|
G|----------------------------------|
C|----------------------------------|

Outro

Guitar 1 & 2
D|----------------|
A|----------------|
F|----------------|
C|--xxxxxxxx------|
G|--xxxxxxxx------|
C|--xxxxxxxx------|

Guitar 1 & 2
D|----------------------------------------------------------------------|
A|----------------------------------------------------------------------|
F|----------------------------------------------------------------------|
C|--5-5-5-5-7-3-0-7-3-5-5-5-5-7-3-0-7-3-1-1-1-1-3-3-3-3-3-3-3-5555/7777-|
G|--5-5-5-5-----------5-5-5-5-----------1-1-1-1-------3-3-3-3-----------|
C|--5-5-5-5-----------5-5-5-5-----------1-1-1-1-------3-3-3-3-----------|

Guitar 1 & 2
D|----------------------------------------------------------------------|
A|----------------------------------------------------------------------|
F|----------------------------------------------------------------------|
C|--5-5-5-5-7-3-0-7-3-5-5-5-5-7-3-0-7-3-1-1-1-1-3-3-3-3-3-3-3-5555/7777-|
G|--5-5-5-5-----------5-5-5-5-----------1-1-1-1-------3-3-3-3-----------|
C|--5-5-5-5-----------5-5-5-5-----------1-1-1-1-------3-3-3-3-----------|

Guitar 1 & 2
D|-----------------------------------------------------------|
A|-----------------------------------------------------------|
F|-----------------------------------------------------------|
C|--5-5-7-10-7-10-7-5-5-7-10-7-10-12-5-5-7-10-7-10-7-0-------|
G|--5-5-7-10-7-10-7-5-5-7-10-7-10-12-5-5-7-10-7-10-7-0-------|
C|--5-5-7-10-7-10-7-5-5-7-10-7-10-12-5-5-7-10-7-10-7-0-------|

Tap to rate this tab
 
# A B C D E F G H I J K L M N O P Q R S T U V W X Y Z