Song name
# A B C D E F G H I J K L M N O P Q R S T U V W X Y Z

Secret And Whisper - Vanishings tab

	Vanishings

Song: Vanishings
Artist: Secret And Whisper
Album: Great White Whale
Year: 2008
Genre: Alternative
Tuning: Half Step Down
Info:
 * | Pinched Harmonic
 . | Palm Mute
 x | Fret Mute
 / | Slide Off
 ^ | Bend Up
 v | Whammy Bar Down
(_)| Optional Note

	> Intro

eb|-xxxx----------------------------------------------14----|
Ab|-xxxx16-16---------------------16-16------------------14-|
Db|-xxxx-----13-1315-1516-1616-16------13-1315-1516-16------|
Gb|-xxxx----------------------------------------------------|
Bb|-xxxx----------------------------------------------------|
Eb|-xxxx----------------------------------------------------|

eb|---------------------------19~-------18~-----191819~-|
Ab|-16-16-----------------------------------------------|
Db|------13-1315-1516-1616-16---------------------------|
Gb|-----------------------------------------------------|
Bb|-----------------------------------------------------|
Eb|-----------------------------------------------------|

eb|-----------------------------------------------14----|
Ab|-16-16---------------------16-16------------------14-|
Db|------13-1315-1516-1616-16------13-1315-1516-16------|
Gb|-----------------------------------------------------|
Bb|-----------------------------------------------------|
Eb|-----------------------------------------------------|

eb|-----------------------------------------------------------|
Ab|-16-16-----------------------------------------------------|
Db|------13-1315-1516-1616-16-16~-------15~-----1615----------|
Gb|-------------------------------------------------16~---18~-|
Bb|-----------------------------------------------------------|
Eb|-----------------------------------------------------------|


	> Verse

eb|-----------------------------------------------------------------|
Ab|----------------------------------------45-54---------------4----|
Db|---------34-43-----------34-43---------------646--------34-4--4--|
Gb|------646-----646-----646-----646----646-------------646---------|
Bb|-6666------------6666------------2222-----------4444-------------|
Eb|-4444------------4444------------0000-----------2222-------------|
  | ....            ....            ....           ....          *  |

eb|-----------------------------------------------------------------|
Ab|----------------------------------------45-54---------------4-2--|
Db|---------34-43-----------34-43---------------646--------34-4-----|
Gb|------646-----646-----646-----646----646-------------646---------|
Bb|-6666------------6666------------2222-----------4444-------------|
Eb|-4444------------4444------------0000-----------2222-------------|
  | ....            ....            ....           ....             |

eb|--------4~------------------xxxx-|
Ab|-4~-------------------------xxxx-|
Db|---------------6~-----433---xxxx-|
Gb|----------------------------xxxx-|
Bb|----------------------------xxxx-|
Eb|----------------------------xxxx-|
  |                        *        |


	> Chorus

Rythm
eb|------------------------------------------------------|
Ab|------------------------------------------------------|
Db|--------------------6-6-6-6-------------6-6-6-8-8-8---|
Gb|-6-6-6-2-2-2-24-4-4-6-6-6-66-6-6-2-2-2-26-6-6-8-8-8---|
Bb|-6-6-6-2-2-2-24-4-4-4-4-4-46-6-6-2-2-2-24-4-4-6-6-6---|
Eb|-4-4-4-0-0-0-02-2-2--------4-4-4-0-0-0-0--------------|
  |
Lead
eb|-----------------------------------------1211912-11-9-|
Ab|-1211911------1211911------1211911--------------------|
Db|---------8-11---------8-8----------8-11---------------|
Gb|------------------------------------------------------|
Bb|------------------------------------------------------|
Eb|------------------------------------------------------|

	> Pre-Verse

eb|---------------------14--------------------------------------------------|
Ab|-16-16------------------14-16~--------------------------(17)-------------|
Db|------13-1315-1516-16-------------16-15----13---16-15-16-----------------|
Gb|----------------------------------------16---------------14--------------|
Bb|------------------------------------------------------------14-13----16--|
Eb|------------------------------------------------------------------14-----|


	> Verse

eb|-------------------------------------------------------------------|
Ab|-------------------------------------------------------------------|
Db|---------4-43-3------------4-43-3/---------------------------------|
Gb|---------------4246-----------------------4-42------------6-64-----|
Bb|-66666666----------66666666-------22222222----222244444444----4444-|
Eb|-44444444----------44444444-------00000000----000022222222----0000-|
  | ........          ........       ........    ............    .... |

Lead
eb|--------------19-19-18-18--------------19-19-18-18-|
Ab|-19-1919-1919-------------19-1919-1919-------------|
Db|---------------------------------------------------|
Gb|---------------------------------------------------|
Bb|---------------------------------------------------|
Eb|---------------------------------------------------|
  |
Rythm
eb|---------------------------------|
Ab|---------------------------------|
Db|---------------------------------|
Gb|-6-66-66-6-6-6-6-6-66-66-6-6-6-6-|
Bb|-6-66-66-6-6-6-6-6-66-66-6-6-6-6-|
Eb|-4-44-44-4-4-4-4-4-44-44-4-4-4-4-|

Lead
eb|--------------19-19-18-18--------------19-19-18-18-|
Ab|-19-1919-1919-------------19-1919-1919-------------|
Db|---------------------------------------------------|
Gb|---------------------------------------------------|
Bb|---------------------------------------------------|
Eb|---------------------------------------------------|
  |
Rythm
eb|---------------------------------|
Ab|---------------------------------|
Db|---------------------------------|
Gb|-2-22-22-2-2-2-2-4-44-44-4-4-4-4-|
Bb|-2-22-22-2-2-2-2-4-44-44-4-4-4-4-|
Eb|-0-00-00-0-0-0-0-2-22-22-2-2-2-2-|

Use whammy bar here.
eb|------------------|
Ab|------------------|
Db|------------------|
Gb|------------------|
Bb|------------------|
Eb|-9v------5^-------|
  |         *		 |


	> Chorus

Lead
eb|-----------------------------------------1211912-11-9-|
Ab|-1211911------1211911------1211911--------------------|
Db|---------8-11---------8-8----------8-11---------------|
Gb|------------------------------------------------------|
Bb|------------------------------------------------------|
Eb|------------------------------------------------------|
  |
Rythm
eb|------------------------------------------------------|
Ab|------------------------------------------------------|
Db|--------------------6-6-6-6-------------6-6-6-8-8-8---|
Gb|-6-6-6-2-2-2-24-4-4-6-6-6-66-6-6-2-2-2-26-6-6-8-8-8---|
Bb|-6-6-6-2-2-2-24-4-4-4-4-4-46-6-6-2-2-2-24-4-4-6-6-6---|
Eb|-4-4-4-0-0-0-02-2-2--------4-4-4-0-0-0-0--------------|

Lead
eb|-----------------11111111111199999912121212--------------1211912-11-9^-----|
Ab|-9999999999999999--------------------------1211911-------------------------|
Db|---------------------------------------------------8-11--------------------|
Gb|---------------------------------------------------------------------------|
Bb|---------------------------------------------------------------------------|
Eb|---------------------------------------------------------------------------|
  |
Rythm
eb|------------------------------------------------------|
Ab|------------------------------------------------------|
Db|--------------------6-6-6-6-------------------6-6-6-6-|
Gb|-6-6-6-2-2-2-24-4-4-6-6-6-66-6-6-2-2-2-24-4-4-6-6-6-6-|
Bb|-6-6-6-2-2-2-24-4-4-4-4-4-46-6-6-2-2-2-24-4-4-4-4-4-4-|
Eb|-4-4-4-0-0-0-02-2-2--------4-4-4-0-0-0-02-2-2---------|

Just the bass and drums play for a few bars, then begin the interlude.

	> Interlude

Use hammer-ons and the volume knob on each note to create a violin type effect here.
Lead
eb|----------------------------------------------------------|
Ab|---------------------9--7---------------9--7--------------|
Db|----------------------------8---9----98--------8---9----98|
Gb|----------------------------------------------------------|
Bb|----------------------------------------------------------|
Eb|----------------------------------------------------------|
  |
Rythm
eb|----------------------------------------------------------|
Ab|----------------------------------------------------------|
Db|------------------98-----------------98-----------------98|
Gb|-6---8---9---11-----6---8---9---11-----6---8---9---11-----|
Bb|----------------------------------------------------------|
Eb|----------------------------------------------------------|

Lead
eb|-----------------12-11-1211-111211-111211-111211-111211-111211-111211-111211-|
Ab|-----------------------------------------------------------------------------|
Db|-8---6-------6---------------------------------------------------------------|
Gb|---------9-------------------------------------------------------------------|
Bb|-----------------------------------------------------------------------------|
Eb|-----------------------------------------------------------------------------|

  |-1112111211121112111211121112111211121111111111111111-|
  |------------------------------------------------------|
  |------------------------------------------------------|
  |------------------------------------------------------|
  |------------------------------------------------------|
  |------------------------------------------------------|
  |
Rythm
eb|------------------------------------------------------------------------------|
Ab|------------------------------------------------------------------------------|
Db|-----------------------------------------333333334444444666666666-------------|
Gb|-----------------------------------------333333334444444666666666-------------|
Bb|-4666666666666666666666666666666646666666111111112222222444444444-------------|
Eb|-2444444444444444444444444444444424444444-------------------------------------|


	> Chorus

Lead
eb|-----------------------------------------1211912-11-9-|
Ab|-1211911------1211911------1211911--------------------|
Db|---------8-11---------8-8----------8-11---------------|
Gb|------------------------------------------------------|
Bb|------------------------------------------------------|
Eb|------------------------------------------------------|
  |
Rythm
eb|------------------------------------------------------|
Ab|------------------------------------------------------|
Db|--------------------6-6-6-6-------------6-6-6-8-8-8---|
Gb|-6-6-6-2-2-2-24-4-4-6-6-6-66-6-6-2-2-2-26-6-6-8-8-8---|
Bb|-6-6-6-2-2-2-24-4-4-4-4-4-46-6-6-2-2-2-24-4-4-6-6-6---|
Eb|-4-4-4-0-0-0-02-2-2--------4-4-4-0-0-0-0--------------|

Lead
eb|-----------------11111111111199999912121212--------------1211912-11-9^-----|
Ab|-9999999999999999--------------------------1211911-------------------------|
Db|---------------------------------------------------8-11--------------------|
Gb|---------------------------------------------------------------------------|
Bb|---------------------------------------------------------------------------|
Eb|---------------------------------------------------------------------------|
  |
Rythm
eb|------------------------------------------------------|
Ab|------------------------------------------------------|
Db|--------------6-6-6-8-8-8-8-------------------6-6-6-6-|
Gb|-6-6-6-2-2-2-26-6-6-8-8-8-86-6-6-2-2-2-24-4-4-6-6-6-6-|
Bb|-6-6-6-2-2-2-24-4-4-6-6-6-66-6-6-2-2-2-24-4-4-4-4-4-4-|
Eb|-4-4-4-0-0-0-0-------------4-4-4-0-0-0-02-2-2---------|


	> Outro

eb|-----------------------------------------------14----|
Ab|-16-16---------------------16-16------------------14-|
Db|------13-1315-1516-1616-16------13-1315-1516-16------|
Gb|-----------------------------------------------------|
Bb|-----------------------------------------------------|
Eb|-----------------------------------------------------|

eb|---------------------------19~-------18~-----191819~-|
Ab|-16-16-----------------------------------------------|
Db|------13-1315-1516-1616-16---------------------------|
Gb|-----------------------------------------------------|
Bb|-----------------------------------------------------|
Eb|-----------------------------------------------------|

Lead
eb|-14-14---------------------14-14---------------14----|
Ab|------12-1214-1416-1616-16------12-1214-1416-16---14-|
Db|-----------------------------------------------------|
Gb|-----------------------------------------------------|
Bb|-----------------------------------------------------|
Eb|-----------------------------------------------------|
  |
Rythm
eb|-----------------------------------------------14----|
Ab|-16-16---------------------16-16------------------14-|
Db|------13-1315-1516-1616-16------13-1315-1516-16------|
Gb|-----------------------------------------------------|
Bb|-----------------------------------------------------|
Eb|-----------------------------------------------------|

Lead
eb|-14-14---------------------16~-------14~-----1614----|
Ab|------12-1214-1416-1616-16-----------------------14~-|
Db|-----------------------------------------------------|
Gb|-----------------------------------------------------|
Bb|-----------------------------------------------------|
Eb|-----------------------------------------------------|
  |
Rythm
eb|-----------------------------------------------------|
Ab|-16-16-----------------------------------------------|
Db|------13-1315-1516-1616-16-16~-------15~-----1615----|
Gb|-------------------------------------------------16~-|
Bb|-----------------------------------------------------|
Eb|-----------------------------------------------------|

Repeat this bar x4 as song fades out.
eb|-----------------------------------------------------|
Ab|-16-16-----------------------------------------------|
Db|------13-1315-15-----13-13/--------------------------|
Gb|----------------16-16------13-1316-16-----13-13------|
Bb|-------------------------------------16-16-----14-14-|
Eb|-----------------------------------------------------|
Tap to rate this tab
# A B C D E F G H I J K L M N O P Q R S T U V W X Y Z