Secret And Whisper - Youth Cats tab

-------------------------------------------------------------------------------
			     Youth Cats - Secret and Whisper
-------------------------------------------------------------------------------
Tabbed by: infectedmusic
Email: infectedmusicac@yahoo.com

To give credit where credit is due, I tabbed this using my own tab for the intro
(see "Youth Cats Intro" tab) and I tabbed the interlude part independently of 
Lucifer1805's work found in the comments section of the "Youth Cats Intro" tab,
but I wanted to credit him with most of that part because I feel he was mostly 
correct.  Furthermore, I feel the rhythm guitar part isn't exactly correct at
times, but it serves its purpose as I wanted to mainly focus on the Lead Guitar
parts (maybe someone can help with the Rythm guitar to make it perfect!)

Hope you enjoy

Tuning: CGCFAD

Intro: (lead part cut and pasted from original tab I posted)

Guitar 1

D|---------------------------------------------------------------------------|
A|---------------------------------------------------------------------------|
F|---------------------------------------------------------------------------|
C|------------------------------55555555-555555-88-88-88---------------------|
G|--Feedback for first part-----55555555-555555-88-88-88-11111-33333---------|
C|------------------------------55555555-555555-88-88-88-11111-33333---------|
*play the 1's and 3's here slightly muted and somewhat tr.

D|---------------------------------------------------------------------------|
A|---------------------------------------------------------------------------|
F|---------------------------------------------------------------------------|
C|-55555555-555555-88-88-88-11-3333------------------------------------------|
G|-55555555-555555-88-88-88-11-3333------------------------------------------|
C|-55555555-555555-88-88-88-11-3333------------------------------------------|



Guitar 2

D|----------------------------------------------------------------15\--------|
A|-------------------------------------------15---------18-------------------|
F|-----------------------14-15-15*---(15)(15)--(15)(15)---(15)(15)-----------|
C|--/17-12*-------/17-12-----------------------------------------------------|
G|---------------------------------------------------------------------------|
C|---------------------------------------------------------------------------|
(*hold the 12 and the 15 along with the song)

D|-----------18---17---15---15---1515-----------------18---17---15------------------|
A|--15------------------------18-----18------15---------------------------18tr------|
F|----(15)(15)-(15)-(15)-(15)----------17------(15)(15)-(15)-(15)--15tr-17tr--17tr--|
C|----------------------------------------------------------------------------------|
G|----------------------------------------------------------------------------------|
C|----------------------------------------------------------------------------------|


D|-----------18---17---15---15---1515---------------18---17---15---15--18h20p18\17-------|
A|--15------------------------18-----18------15-----------------------------------18h20--|
F|----(15)(15)-(15)-(15)-(15)----------17-----(15)(15)-(15)-(15)-(15)--------------------|
C|---------------------------------------------------------------------------------------|
G|---------------------------------------------------------------------------------------|
C|---------------------------------------------------------------------------------------|

Verse:

Guitar 1

D|---------------------------------------------------------------------------|
A|---------------------------------------------------------------------------|
F|---------------------------------------------------------------------------|
C|-55-5555-555-5555-555555--33333333-----------------------------------------|
G|-55-5555-555-5555-555555--33333333-----------------------------------------|
C|-55-5555-555-5555-555555--33333333-----------------------------------------|

Guitar 2

D|---------------------------------------------------------------------------|
A|---------------------------------------------------------------------------|
F|---------------------------------------------------------------------------|
C|---play nothing then...---33333333-----------------------------------------|
G|--------------------------33333333-----------------------------------------|
C|--------------------------33333333-----------------------------------------|

Guitar 1

D|---------------------------------------------------------------------------|
A|---------------------------------------------------------------------------|
F|---------------------------------------------------------------------------|
C|-55-5555-555-5555-555555--33333333-----------------------------------------|
G|-55-5555-555-5555-555555--33333333-----------------------------------------|
C|-55-5555-555-5555-555555--33333333-----------------------------------------|

Guitar 2

D|---------------------------------------------------------------------------|
A|---------------------------------------------------------------------------|
F|---------------------------------------------------------------------------|
C|-55-5555-555-5555-555555--33333333-----------------------------------------|
G|-55-5555-555-5555-555555--33333333-----------------------------------------|
C|-55-5555-555-5555-555555--33333333-----------------------------------------|

Guitar 1

D|---------------------------------------------------------------------------|
A|---------------------------------------------------------------------------|
F|---------------------------------------------------------------------------|
C|-55-5555-555-5555-555555--33333333-----------------------------------------|
G|-55-5555-555-5555-555555--33333333-----------------------------------------|
C|-55-5555-555-5555-555555--33333333-----------------------------------------|


Guitar 2

D|---------------------------------------------------------------------------|
A|---------------------------------------------------------------------------|
F|-------------------------------14-15-14------------------------------------|
C|-/12-15-17-17-10-12--/12-15-17----------/12-15-17-17-10-12-----------------|
G|---------------------------------------------------------------------------|
C|---------------------------------------------------------------------------|

D|-------------------------15\-----------------------------------------------|
A|-----------151515-181818---------------------------------------------------|
F|---------------------------------------------------------------------------|
C|-/12-15-17-----------------------------------------------------------------|
G|---------------------------------------------------------------------------|
C|---------------------------------------------------------------------------|

Guitars 1 & 2

D|---------------------------------------------------------------------------|
A|--these are 1's------------------------------------------------------------|
F|---------------------------------------------------------------------------|
C|-111111111111111-3333333333333333-5555555555555555--8888888888888888-------|
G|-111111111111111-3333333333333333-5555555555555555--8888888888888888-------|
C|-111111111111111-3333333333333333-5555555555555555--8888888888888888-------|
*play the muted 8's only at the end of the FIRST verse...

Chorus:

Guitar 1

D|------------------------------------------------------------------------------|
A|--these are 1's---------------------------------------------------------------|
F|------------------------------------------------------------------------------|
C|-11111111111111111-3333333333333333-5555555555555555-88888888-1010101010101010|
G|-11111111111111111-3333333333333333-5555555555555555-88888888-1010101010101010|
C|-11111111111111111-3333333333333333-5555555555555555-88888888-1010101010101010|
*repeat this once more to complete the chorus

Guitar 2

D|------------------------------------------1817---------1817----------------|
A|----------------------------------18----------18-----------18--------------|
F|-/19-12-14-15-----/19-12-14-15------17-15-------1717h19------17191719------|
C|--------------15---------------15------------------------------------------|
G|---------------------------------------------------------------------------|
C|---------------------------------------------------------------------------|
  tr.......................................

D|------------------------------------------1817---------1817----------------|
A|----------------------------------18----------18-----------18--------------|
F|-/19-12-14-15-----/19-12-14-15------17-15-------1717h19------17191719------|
C|--------------15---------------15------------------------------------------|
G|---------------------------------------------------------------------------|
C|---------------------------------------------------------------------------|
  tr.......................................

Guitar 2 ONLY

D|-1817--------1817------------1817---------201817---------------------------|
A|-----18----------18--------------18-------------20201820\------------------|
F|-------171719------17191719~--------171719---------------------------------|
C|---------------------------------------------------------------------------|
G|---------------------------------------------------------------------------|
C|---------------------------------------------------------------------------|
*play with a cleaner setting

Verse 2 is EXACTLY the same *EXCEPT* remember the note from earlier not to 
play the muted 8's

Chorus 2 is the same but repeat the next riff twice at the end

D|-1817--------1817------------1817---------201817---------------------------|
A|-----18----------18--------------18-------------20201820\------------------|
F|-------171719------17191719~--------171719---------------------------------|
C|---------------------------------------------------------------------------|
G|---------------------------------------------------------------------------|
C|---------------------------------------------------------------------------|
*play with a cleaner setting

Interlude (thanks Lucifer1805 for contributing):

Guitar 1

D|--------------------------------------------------------------------|-2nd--|
A|--------------------------------------------------------------------|-time-|
F|--------------------------------------------------------------------|------|
C|-55555555555555555555555555555555-8888888888888888-3333333333333333-|-1----|
G|-55555555555555555555555555555555-8888888888888888-3333333333333333-|-1----|
C|-55555555555555555555555555555555-8888888888888888-3333333333333333-|-1----|
*this basically repeats one more time but adds that 111 the second time
sorry to get a little vague here, but i KNOW that I haven't tabbed this
part exactly right.  It sounds ok, but when listening closely, the 3's
don't really sound as prominent - they seem to "drop out" of the mix while
Guitar 2 sounds more "in front." What I DEFINITELY heard (very faintly) that
the second time Guitar 2 does the /15-/14-/17-/19, Guitar 1 seems to stop
strumming chords and plays:

D|-----------------------|
A|-----------------------|
F|-----------------------|
C|-----------------------|
G|--/13-/12-/15-/17------|
C|-----------------------|
 *again I'm not 100% - it Is an exact octave of Guitar 2's part so it sounds
good either way

...anyway, on to Guitar 2 (which I feel more 100% on)

Guitar 2


D|---------------------------------------------------------------------------|
A|---------------------------------------------------------------18h20-15\---|
F|-10h12p10-----12--12h14p12-----14--14h15p14-----17--17h19-17-15------------|
C|---------12-12--12--------12-12--12--------15-15--15-----------------------|
G|---------------------------------------------------------------------------|
C|---------------------------------------------------------------------------|

D|---------------------------------------------------------------------------|
A|---------------------------------------------------------------------------|
F|-10h12p10-----12--12h14p12-----14---/15-/14-/17-/19------------------------|
C|---------12-12--12--------12-12--12----------------------------------------|
G|---------------------------------------------------------------------------|
C|---------------------------------------------------------------------------|

D|---------------------------------------------------------------------------|
A|---------------------------------------------------------------------------|
F|-10h12p10-----12--12h14p12-----14------------------------------------------|
C|---------12-12--12--------12-12--12----------------------------------------|
G|---------------------------------------------------------------------------|
C|------------------------------------15~/20-19-15---------------------------|

D|---------------------------------------------------------------------------|
A|---------------------------------------------------------------------------|
F|-10h12p10-----12--12h14p12-----14---/15-/14/-17-/19------------------------|
C|---------12-12--12--------12-12--12----------------------------------------|
G|---------------------------------------------------------------------------|
C|---------------------------------------------------------------------------|

D|---------------------------------------------------------------------------|
A|---------------------------------------------------------------------------|
F|-10h12p10-----12--12h14p12-----14------------------------------------------|
C|---------12-12--12--------12-12--12----------------------------------------|
G|---------------------------------------------------------------------------|
C|------------------------------------15~/20-19-15-17*-----------------------|
*I'm not positive the 17 is there, but it sounds good

Ending:

Guitar 2 only

D|--------------------------------------------18-17------18-17---------------|
A|--------------------------------18/20------------18----------18------------|
F|-/19-12-14-15----/19-12-14-15---------17-15---------17----------17---------|
C|--------------15--------------15-------------------------------------------|
G|---------------------------------------------------------------------------|
C|---------------------------------------------------------------------------|
*play 4 times



************************************
| tr  tremolo pick
| /   slide up
| \   slide down
| h   hammer-on
| p   pull-off
| ~   vibrato
| +   harmonic
| x   Mute note
| b   Bend
| pb  Pre-bend
| br  Bend release
| pbr Pre-bend release
| brb Bend release bend

************************************
Tap to rate this tab
 
# A B C D E F G H I J K L M N O P Q R S T U V W X Y Z